ISO-10303-21;
HEADER;
/* Generated by software containing ST-Developer
 * from STEP Tools, Inc. (www.steptools.com) 
 */

FILE_DESCRIPTION(
/* description */ (''),
/* implementation_level */ '2;1');

FILE_NAME(
/* name */ 'PSx3.ipt.stp',
/* time_stamp */ '2023-05-17T09:46:36+03:00',
/* author */ ('Man88'),
/* organization */ (''),
/* preprocessor_version */ 'ST-DEVELOPER v19.2',
/* originating_system */ 'Autodesk Inventor 2023',
/* authorisation */ '');

FILE_SCHEMA (('AUTOMOTIVE_DESIGN { 1 0 10303 214 3 1 1 }'));
ENDSEC;

DATA;
#10=MECHANICAL_DESIGN_GEOMETRIC_PRESENTATION_REPRESENTATION('',(#13),#309);
#11=SHAPE_REPRESENTATION_RELATIONSHIP('SRR','None',#316,#12);
#12=ADVANCED_BREP_SHAPE_REPRESENTATION('',(#14),#308);
#13=STYLED_ITEM('',(#325),#14);
#14=MANIFOLD_SOLID_BREP('\X2\04220432043504400434043E0435\X0\ \X2\04420435043B043E\X0\1',
#176);
#15=CYLINDRICAL_SURFACE('',#207,7.);
#16=CYLINDRICAL_SURFACE('',#209,7.);
#17=CYLINDRICAL_SURFACE('',#211,7.);
#18=FACE_BOUND('',#44,.T.);
#19=FACE_BOUND('',#45,.T.);
#20=FACE_BOUND('',#46,.T.);
#21=FACE_BOUND('',#51,.T.);
#22=FACE_BOUND('',#52,.T.);
#23=FACE_BOUND('',#53,.T.);
#24=CIRCLE('',#204,7.);
#25=CIRCLE('',#205,7.);
#26=CIRCLE('',#206,7.);
#27=CIRCLE('',#208,7.);
#28=CIRCLE('',#210,7.);
#29=CIRCLE('',#212,7.);
#30=FACE_OUTER_BOUND('',#39,.T.);
#31=FACE_OUTER_BOUND('',#40,.T.);
#32=FACE_OUTER_BOUND('',#41,.T.);
#33=FACE_OUTER_BOUND('',#42,.T.);
#34=FACE_OUTER_BOUND('',#43,.T.);
#35=FACE_OUTER_BOUND('',#47,.T.);
#36=FACE_OUTER_BOUND('',#48,.T.);
#37=FACE_OUTER_BOUND('',#49,.T.);
#38=FACE_OUTER_BOUND('',#50,.T.);
#39=EDGE_LOOP('',(#119,#120,#121,#122));
#40=EDGE_LOOP('',(#123,#124,#125,#126));
#41=EDGE_LOOP('',(#127,#128,#129,#130));
#42=EDGE_LOOP('',(#131,#132,#133,#134));
#43=EDGE_LOOP('',(#135,#136,#137,#138));
#44=EDGE_LOOP('',(#139));
#45=EDGE_LOOP('',(#140));
#46=EDGE_LOOP('',(#141));
#47=EDGE_LOOP('',(#142,#143,#144,#145));
#48=EDGE_LOOP('',(#146,#147,#148,#149));
#49=EDGE_LOOP('',(#150,#151,#152,#153));
#50=EDGE_LOOP('',(#154,#155,#156,#157));
#51=EDGE_LOOP('',(#158));
#52=EDGE_LOOP('',(#159));
#53=EDGE_LOOP('',(#160));
#54=LINE('',#265,#69);
#55=LINE('',#267,#70);
#56=LINE('',#269,#71);
#57=LINE('',#270,#72);
#58=LINE('',#273,#73);
#59=LINE('',#275,#74);
#60=LINE('',#276,#75);
#61=LINE('',#279,#76);
#62=LINE('',#281,#77);
#63=LINE('',#282,#78);
#64=LINE('',#284,#79);
#65=LINE('',#285,#80);
#66=LINE('',#295,#81);
#67=LINE('',#299,#82);
#68=LINE('',#303,#83);
#69=VECTOR('',#218,10.);
#70=VECTOR('',#219,10.);
#71=VECTOR('',#220,10.);
#72=VECTOR('',#221,10.);
#73=VECTOR('',#224,10.);
#74=VECTOR('',#225,10.);
#75=VECTOR('',#226,10.);
#76=VECTOR('',#229,10.);
#77=VECTOR('',#230,10.);
#78=VECTOR('',#231,10.);
#79=VECTOR('',#234,10.);
#80=VECTOR('',#235,10.);
#81=VECTOR('',#246,7.);
#82=VECTOR('',#251,7.);
#83=VECTOR('',#256,7.);
#84=VERTEX_POINT('',#263);
#85=VERTEX_POINT('',#264);
#86=VERTEX_POINT('',#266);
#87=VERTEX_POINT('',#268);
#88=VERTEX_POINT('',#272);
#89=VERTEX_POINT('',#274);
#90=VERTEX_POINT('',#278);
#91=VERTEX_POINT('',#280);
#92=VERTEX_POINT('',#287);
#93=VERTEX_POINT('',#289);
#94=VERTEX_POINT('',#291);
#95=VERTEX_POINT('',#294);
#96=VERTEX_POINT('',#298);
#97=VERTEX_POINT('',#302);
#98=EDGE_CURVE('',#84,#85,#54,.T.);
#99=EDGE_CURVE('',#84,#86,#55,.T.);
#100=EDGE_CURVE('',#86,#87,#56,.T.);
#101=EDGE_CURVE('',#85,#87,#57,.T.);
#102=EDGE_CURVE('',#87,#88,#58,.T.);
#103=EDGE_CURVE('',#89,#88,#59,.T.);
#104=EDGE_CURVE('',#85,#89,#60,.T.);
#105=EDGE_CURVE('',#89,#90,#61,.T.);
#106=EDGE_CURVE('',#88,#91,#62,.T.);
#107=EDGE_CURVE('',#90,#91,#63,.T.);
#108=EDGE_CURVE('',#91,#86,#64,.T.);
#109=EDGE_CURVE('',#90,#84,#65,.T.);
#110=EDGE_CURVE('',#92,#92,#24,.T.);
#111=EDGE_CURVE('',#93,#93,#25,.T.);
#112=EDGE_CURVE('',#94,#94,#26,.T.);
#113=EDGE_CURVE('',#92,#95,#66,.T.);
#114=EDGE_CURVE('',#95,#95,#27,.T.);
#115=EDGE_CURVE('',#93,#96,#67,.T.);
#116=EDGE_CURVE('',#96,#96,#28,.T.);
#117=EDGE_CURVE('',#94,#97,#68,.T.);
#118=EDGE_CURVE('',#97,#97,#29,.T.);
#119=ORIENTED_EDGE('',*,*,#98,.F.);
#120=ORIENTED_EDGE('',*,*,#99,.T.);
#121=ORIENTED_EDGE('',*,*,#100,.T.);
#122=ORIENTED_EDGE('',*,*,#101,.F.);
#123=ORIENTED_EDGE('',*,*,#101,.T.);
#124=ORIENTED_EDGE('',*,*,#102,.T.);
#125=ORIENTED_EDGE('',*,*,#103,.F.);
#126=ORIENTED_EDGE('',*,*,#104,.F.);
#127=ORIENTED_EDGE('',*,*,#105,.F.);
#128=ORIENTED_EDGE('',*,*,#103,.T.);
#129=ORIENTED_EDGE('',*,*,#106,.T.);
#130=ORIENTED_EDGE('',*,*,#107,.F.);
#131=ORIENTED_EDGE('',*,*,#107,.T.);
#132=ORIENTED_EDGE('',*,*,#108,.T.);
#133=ORIENTED_EDGE('',*,*,#99,.F.);
#134=ORIENTED_EDGE('',*,*,#109,.F.);
#135=ORIENTED_EDGE('',*,*,#98,.T.);
#136=ORIENTED_EDGE('',*,*,#104,.T.);
#137=ORIENTED_EDGE('',*,*,#105,.T.);
#138=ORIENTED_EDGE('',*,*,#109,.T.);
#139=ORIENTED_EDGE('',*,*,#110,.T.);
#140=ORIENTED_EDGE('',*,*,#111,.T.);
#141=ORIENTED_EDGE('',*,*,#112,.T.);
#142=ORIENTED_EDGE('',*,*,#110,.F.);
#143=ORIENTED_EDGE('',*,*,#113,.T.);
#144=ORIENTED_EDGE('',*,*,#114,.F.);
#145=ORIENTED_EDGE('',*,*,#113,.F.);
#146=ORIENTED_EDGE('',*,*,#111,.F.);
#147=ORIENTED_EDGE('',*,*,#115,.T.);
#148=ORIENTED_EDGE('',*,*,#116,.F.);
#149=ORIENTED_EDGE('',*,*,#115,.F.);
#150=ORIENTED_EDGE('',*,*,#112,.F.);
#151=ORIENTED_EDGE('',*,*,#117,.T.);
#152=ORIENTED_EDGE('',*,*,#118,.F.);
#153=ORIENTED_EDGE('',*,*,#117,.F.);
#154=ORIENTED_EDGE('',*,*,#100,.F.);
#155=ORIENTED_EDGE('',*,*,#108,.F.);
#156=ORIENTED_EDGE('',*,*,#106,.F.);
#157=ORIENTED_EDGE('',*,*,#102,.F.);
#158=ORIENTED_EDGE('',*,*,#114,.T.);
#159=ORIENTED_EDGE('',*,*,#116,.T.);
#160=ORIENTED_EDGE('',*,*,#118,.T.);
#161=PLANE('',#199);
#162=PLANE('',#200);
#163=PLANE('',#201);
#164=PLANE('',#202);
#165=PLANE('',#203);
#166=PLANE('',#213);
#167=ADVANCED_FACE('',(#30),#161,.T.);
#168=ADVANCED_FACE('',(#31),#162,.T.);
#169=ADVANCED_FACE('',(#32),#163,.T.);
#170=ADVANCED_FACE('',(#33),#164,.T.);
#171=ADVANCED_FACE('',(#34,#18,#19,#20),#165,.F.);
#172=ADVANCED_FACE('',(#35),#15,.F.);
#173=ADVANCED_FACE('',(#36),#16,.F.);
#174=ADVANCED_FACE('',(#37),#17,.F.);
#175=ADVANCED_FACE('',(#38,#21,#22,#23),#166,.T.);
#176=CLOSED_SHELL('',(#167,#168,#169,#170,#171,#172,#173,#174,#175));
#177=DERIVED_UNIT_ELEMENT(#180,1.);
#178=DERIVED_UNIT_ELEMENT(#311,-3.);
#179=DIMENSIONAL_EXPONENTS(0.,1.,0.,0.,0.,0.,0.);
#180=(
CONVERSION_BASED_UNIT('gram',#182)
MASS_UNIT()
NAMED_UNIT(#179)
);
#181=(
MASS_UNIT()
NAMED_UNIT(*)
SI_UNIT(.KILO.,.GRAM.)
);
#182=MASS_MEASURE_WITH_UNIT(MASS_MEASURE(0.001),#181);
#183=DERIVED_UNIT((#177,#178));
#184=MEASURE_REPRESENTATION_ITEM('density measure',
POSITIVE_RATIO_MEASURE(1.),#183);
#185=PROPERTY_DEFINITION_REPRESENTATION(#190,#187);
#186=PROPERTY_DEFINITION_REPRESENTATION(#191,#188);
#187=REPRESENTATION('material name',(#189),#308);
#188=REPRESENTATION('density',(#184),#308);
#189=DESCRIPTIVE_REPRESENTATION_ITEM('\X2\04220438043F043E0432044B0435\X0\',
'\X2\04220438043F043E0432044B0435\X0\');
#190=PROPERTY_DEFINITION('material property','material name',#318);
#191=PROPERTY_DEFINITION('material property','density of part',#318);
#192=DATE_TIME_ROLE('creation_date');
#193=APPLIED_DATE_AND_TIME_ASSIGNMENT(#194,#192,(#318));
#194=DATE_AND_TIME(#195,#196);
#195=CALENDAR_DATE(2019,28,6);
#196=LOCAL_TIME(0,0,0.,#197);
#197=COORDINATED_UNIVERSAL_TIME_OFFSET(0,0,.BEHIND.);
#198=AXIS2_PLACEMENT_3D('',#261,#214,#215);
#199=AXIS2_PLACEMENT_3D('',#262,#216,#217);
#200=AXIS2_PLACEMENT_3D('',#271,#222,#223);
#201=AXIS2_PLACEMENT_3D('',#277,#227,#228);
#202=AXIS2_PLACEMENT_3D('',#283,#232,#233);
#203=AXIS2_PLACEMENT_3D('',#286,#236,#237);
#204=AXIS2_PLACEMENT_3D('',#288,#238,#239);
#205=AXIS2_PLACEMENT_3D('',#290,#240,#241);
#206=AXIS2_PLACEMENT_3D('',#292,#242,#243);
#207=AXIS2_PLACEMENT_3D('',#293,#244,#245);
#208=AXIS2_PLACEMENT_3D('',#296,#247,#248);
#209=AXIS2_PLACEMENT_3D('',#297,#249,#250);
#210=AXIS2_PLACEMENT_3D('',#300,#252,#253);
#211=AXIS2_PLACEMENT_3D('',#301,#254,#255);
#212=AXIS2_PLACEMENT_3D('',#304,#257,#258);
#213=AXIS2_PLACEMENT_3D('',#305,#259,#260);
#214=DIRECTION('axis',(0.,0.,1.));
#215=DIRECTION('refdir',(1.,0.,0.));
#216=DIRECTION('center_axis',(-8.88178419700125E-16,0.,-1.));
#217=DIRECTION('ref_axis',(-1.,0.,8.88178419700125E-16));
#218=DIRECTION('',(1.,0.,-8.88178419700125E-16));
#219=DIRECTION('',(0.,1.,0.));
#220=DIRECTION('',(1.,0.,-8.88178419700125E-16));
#221=DIRECTION('',(0.,1.,0.));
#222=DIRECTION('center_axis',(1.,0.,0.));
#223=DIRECTION('ref_axis',(0.,0.,-1.));
#224=DIRECTION('',(0.,0.,1.));
#225=DIRECTION('',(0.,1.,0.));
#226=DIRECTION('',(0.,0.,1.));
#227=DIRECTION('center_axis',(0.,0.,1.));
#228=DIRECTION('ref_axis',(1.,0.,0.));
#229=DIRECTION('',(-1.,0.,0.));
#230=DIRECTION('',(-1.,0.,0.));
#231=DIRECTION('',(0.,1.,0.));
#232=DIRECTION('center_axis',(-1.,0.,7.105427357601E-17));
#233=DIRECTION('ref_axis',(7.105427357601E-17,0.,1.));
#234=DIRECTION('',(-7.105427357601E-17,0.,-1.));
#235=DIRECTION('',(-7.105427357601E-17,0.,-1.));
#236=DIRECTION('center_axis',(0.,1.,0.));
#237=DIRECTION('ref_axis',(0.,0.,1.));
#238=DIRECTION('center_axis',(0.,1.,0.));
#239=DIRECTION('ref_axis',(1.,0.,0.));
#240=DIRECTION('center_axis',(0.,1.,0.));
#241=DIRECTION('ref_axis',(1.,0.,0.));
#242=DIRECTION('center_axis',(0.,1.,0.));
#243=DIRECTION('ref_axis',(1.,0.,0.));
#244=DIRECTION('center_axis',(0.,1.,0.));
#245=DIRECTION('ref_axis',(1.,0.,0.));
#246=DIRECTION('',(0.,1.,0.));
#247=DIRECTION('center_axis',(0.,-1.,0.));
#248=DIRECTION('ref_axis',(1.,0.,0.));
#249=DIRECTION('center_axis',(0.,1.,0.));
#250=DIRECTION('ref_axis',(1.,0.,0.));
#251=DIRECTION('',(0.,1.,0.));
#252=DIRECTION('center_axis',(0.,-1.,0.));
#253=DIRECTION('ref_axis',(1.,0.,0.));
#254=DIRECTION('center_axis',(0.,1.,0.));
#255=DIRECTION('ref_axis',(1.,0.,0.));
#256=DIRECTION('',(0.,1.,0.));
#257=DIRECTION('center_axis',(0.,-1.,0.));
#258=DIRECTION('ref_axis',(1.,0.,0.));
#259=DIRECTION('center_axis',(0.,1.,0.));
#260=DIRECTION('ref_axis',(0.,0.,1.));
#261=CARTESIAN_POINT('',(0.,0.,0.));
#262=CARTESIAN_POINT('Origin',(-40.,0.,-125.));
#263=CARTESIAN_POINT('',(-40.,0.,-125.));
#264=CARTESIAN_POINT('',(0.,0.,-125.));
#265=CARTESIAN_POINT('',(-40.,0.,-125.));
#266=CARTESIAN_POINT('',(-40.,4.,-125.));
#267=CARTESIAN_POINT('',(-40.,0.,-125.));
#268=CARTESIAN_POINT('',(0.,4.,-125.));
#269=CARTESIAN_POINT('',(-40.,4.,-125.));
#270=CARTESIAN_POINT('',(0.,0.,-125.));
#271=CARTESIAN_POINT('Origin',(0.,0.,-125.));
#272=CARTESIAN_POINT('',(0.,4.,0.));
#273=CARTESIAN_POINT('',(0.,4.,-125.));
#274=CARTESIAN_POINT('',(0.,0.,0.));
#275=CARTESIAN_POINT('',(0.,0.,0.));
#276=CARTESIAN_POINT('',(0.,0.,-125.));
#277=CARTESIAN_POINT('Origin',(0.,0.,0.));
#278=CARTESIAN_POINT('',(-40.,0.,0.));
#279=CARTESIAN_POINT('',(0.,0.,0.));
#280=CARTESIAN_POINT('',(-40.,4.,0.));
#281=CARTESIAN_POINT('',(0.,4.,0.));
#282=CARTESIAN_POINT('',(-40.,0.,0.));
#283=CARTESIAN_POINT('Origin',(-40.,0.,0.));
#284=CARTESIAN_POINT('',(-40.,4.,0.));
#285=CARTESIAN_POINT('',(-40.,0.,0.));
#286=CARTESIAN_POINT('Origin',(-20.,0.,-62.5));
#287=CARTESIAN_POINT('',(-27.,0.,-104.5));
#288=CARTESIAN_POINT('Origin',(-20.,0.,-104.5));
#289=CARTESIAN_POINT('',(-27.,0.,-62.5));
#290=CARTESIAN_POINT('Origin',(-20.,0.,-62.5));
#291=CARTESIAN_POINT('',(-27.,0.,-20.5));
#292=CARTESIAN_POINT('Origin',(-20.,0.,-20.5));
#293=CARTESIAN_POINT('Origin',(-20.,0.,-104.5));
#294=CARTESIAN_POINT('',(-27.,4.,-104.5));
#295=CARTESIAN_POINT('',(-27.,0.,-104.5));
#296=CARTESIAN_POINT('Origin',(-20.,4.,-104.5));
#297=CARTESIAN_POINT('Origin',(-20.,0.,-62.5));
#298=CARTESIAN_POINT('',(-27.,4.,-62.5));
#299=CARTESIAN_POINT('',(-27.,0.,-62.5));
#300=CARTESIAN_POINT('Origin',(-20.,4.,-62.5));
#301=CARTESIAN_POINT('Origin',(-20.,0.,-20.5));
#302=CARTESIAN_POINT('',(-27.,4.,-20.5));
#303=CARTESIAN_POINT('',(-27.,0.,-20.5));
#304=CARTESIAN_POINT('Origin',(-20.,4.,-20.5));
#305=CARTESIAN_POINT('Origin',(-20.,4.,-62.5));
#306=UNCERTAINTY_MEASURE_WITH_UNIT(LENGTH_MEASURE(0.01),#310,
'DISTANCE_ACCURACY_VALUE',
'Maximum model space distance between geometric entities at asserted c
onnectivities');
#307=UNCERTAINTY_MEASURE_WITH_UNIT(LENGTH_MEASURE(0.01),#310,
'DISTANCE_ACCURACY_VALUE',
'Maximum model space distance between geometric entities at asserted c
onnectivities');
#308=(
GEOMETRIC_REPRESENTATION_CONTEXT(3)
GLOBAL_UNCERTAINTY_ASSIGNED_CONTEXT((#306))
GLOBAL_UNIT_ASSIGNED_CONTEXT((#310,#312,#313))
REPRESENTATION_CONTEXT('','3D')
);
#309=(
GEOMETRIC_REPRESENTATION_CONTEXT(3)
GLOBAL_UNCERTAINTY_ASSIGNED_CONTEXT((#307))
GLOBAL_UNIT_ASSIGNED_CONTEXT((#310,#312,#313))
REPRESENTATION_CONTEXT('','3D')
);
#310=(
LENGTH_UNIT()
NAMED_UNIT(*)
SI_UNIT(.MILLI.,.METRE.)
);
#311=(
LENGTH_UNIT()
NAMED_UNIT(*)
SI_UNIT(.CENTI.,.METRE.)
);
#312=(
NAMED_UNIT(*)
PLANE_ANGLE_UNIT()
SI_UNIT($,.RADIAN.)
);
#313=(
NAMED_UNIT(*)
SI_UNIT($,.STERADIAN.)
SOLID_ANGLE_UNIT()
);
#314=SHAPE_DEFINITION_REPRESENTATION(#315,#316);
#315=PRODUCT_DEFINITION_SHAPE('',$,#318);
#316=SHAPE_REPRESENTATION('',(#198),#308);
#317=PRODUCT_DEFINITION_CONTEXT('part definition',#322,'design');
#318=PRODUCT_DEFINITION(
'\X2\041F043B0430044104420438043D0430\X0\ \X2\0441043E043504340438043D043804420435043B044C043D0430044F\X0\ 
\X2\0441\X0\ 3 \X2\043E0442043204350440044104420438044F043C0438\X0\ 12
4 \X2\043C043C\X0\, PSx3','PSx3',#319,#317);
#319=PRODUCT_DEFINITION_FORMATION('',$,#324);
#320=PRODUCT_RELATED_PRODUCT_CATEGORY('PSx3','PSx3',(#324));
#321=APPLICATION_PROTOCOL_DEFINITION('international standard',
'automotive_design',2009,#322);
#322=APPLICATION_CONTEXT(
'Core Data for Automotive Mechanical Design Process');
#323=PRODUCT_CONTEXT('part definition',#322,'mechanical');
#324=PRODUCT(
'\X2\041F043B0430044104420438043D0430\X0\ \X2\0441043E043504340438043D043804420435043B044C043D0430044F\X0\ 
\X2\0441\X0\ 3 \X2\043E0442043204350440044104420438044F043C0438\X0\ 12
4 \X2\043C043C\X0\, PSx3','PSx3',$,(#323));
#325=PRESENTATION_STYLE_ASSIGNMENT((#326));
#326=SURFACE_STYLE_USAGE(.BOTH.,#329);
#327=SURFACE_STYLE_RENDERING_WITH_PROPERTIES($,#333,(#328));
#328=SURFACE_STYLE_TRANSPARENT(0.);
#329=SURFACE_SIDE_STYLE('',(#330,#327));
#330=SURFACE_STYLE_FILL_AREA(#331);
#331=FILL_AREA_STYLE('',(#332));
#332=FILL_AREA_STYLE_COLOUR('',#333);
#333=COLOUR_RGB('',0.745098039215686,0.737254901960784,0.729411764705882);
ENDSEC;
END-ISO-10303-21;
