ISO-10303-21;
HEADER;
/* Generated by software containing ST-Developer
 * from STEP Tools, Inc. (www.steptools.com) 
 */

FILE_DESCRIPTION(
/* description */ (''),
/* implementation_level */ '2;1');

FILE_NAME(
/* name */ '308230 USG45x2.ipt.stp',
/* time_stamp */ '2023-05-16T17:46:31+03:00',
/* author */ ('Man88'),
/* organization */ (''),
/* preprocessor_version */ 'ST-DEVELOPER v19.2',
/* originating_system */ 'Autodesk Inventor 2023',
/* authorisation */ '');

FILE_SCHEMA (('AUTOMOTIVE_DESIGN { 1 0 10303 214 3 1 1 }'));
ENDSEC;

DATA;
#10=MECHANICAL_DESIGN_GEOMETRIC_PRESENTATION_REPRESENTATION('',(#13),#606);
#11=SHAPE_REPRESENTATION_RELATIONSHIP('SRR','None',#613,#12);
#12=ADVANCED_BREP_SHAPE_REPRESENTATION('',(#14),#605);
#13=STYLED_ITEM('',(#622),#14);
#14=MANIFOLD_SOLID_BREP('\X2\04220432043504400434043E0435\X0\ \X2\04420435043B043E\X0\1',
#345);
#15=FACE_BOUND('',#54,.T.);
#16=FACE_BOUND('',#60,.T.);
#17=FACE_BOUND('',#69,.T.);
#18=FACE_BOUND('',#74,.T.);
#19=PLANE('',#371);
#20=PLANE('',#372);
#21=PLANE('',#377);
#22=PLANE('',#381);
#23=PLANE('',#382);
#24=PLANE('',#387);
#25=PLANE('',#393);
#26=PLANE('',#394);
#27=PLANE('',#396);
#28=PLANE('',#398);
#29=PLANE('',#402);
#30=PLANE('',#403);
#31=FACE_OUTER_BOUND('',#51,.T.);
#32=FACE_OUTER_BOUND('',#52,.T.);
#33=FACE_OUTER_BOUND('',#53,.T.);
#34=FACE_OUTER_BOUND('',#55,.T.);
#35=FACE_OUTER_BOUND('',#56,.T.);
#36=FACE_OUTER_BOUND('',#57,.T.);
#37=FACE_OUTER_BOUND('',#58,.T.);
#38=FACE_OUTER_BOUND('',#59,.T.);
#39=FACE_OUTER_BOUND('',#61,.T.);
#40=FACE_OUTER_BOUND('',#62,.T.);
#41=FACE_OUTER_BOUND('',#63,.T.);
#42=FACE_OUTER_BOUND('',#64,.T.);
#43=FACE_OUTER_BOUND('',#65,.T.);
#44=FACE_OUTER_BOUND('',#66,.T.);
#45=FACE_OUTER_BOUND('',#67,.T.);
#46=FACE_OUTER_BOUND('',#68,.T.);
#47=FACE_OUTER_BOUND('',#70,.T.);
#48=FACE_OUTER_BOUND('',#71,.T.);
#49=FACE_OUTER_BOUND('',#72,.T.);
#50=FACE_OUTER_BOUND('',#73,.T.);
#51=EDGE_LOOP('',(#225,#226,#227,#228));
#52=EDGE_LOOP('',(#229,#230,#231,#232));
#53=EDGE_LOOP('',(#233,#234,#235,#236,#237,#238));
#54=EDGE_LOOP('',(#239));
#55=EDGE_LOOP('',(#240,#241,#242,#243));
#56=EDGE_LOOP('',(#244,#245,#246,#247));
#57=EDGE_LOOP('',(#248,#249,#250,#251));
#58=EDGE_LOOP('',(#252,#253,#254,#255));
#59=EDGE_LOOP('',(#256,#257,#258,#259,#260,#261));
#60=EDGE_LOOP('',(#262));
#61=EDGE_LOOP('',(#263,#264,#265,#266));
#62=EDGE_LOOP('',(#267,#268,#269,#270));
#63=EDGE_LOOP('',(#271,#272,#273,#274));
#64=EDGE_LOOP('',(#275,#276,#277,#278));
#65=EDGE_LOOP('',(#279,#280,#281,#282));
#66=EDGE_LOOP('',(#283,#284,#285,#286));
#67=EDGE_LOOP('',(#287,#288,#289,#290));
#68=EDGE_LOOP('',(#291,#292,#293,#294,#295,#296));
#69=EDGE_LOOP('',(#297));
#70=EDGE_LOOP('',(#298,#299,#300,#301));
#71=EDGE_LOOP('',(#302,#303,#304,#305));
#72=EDGE_LOOP('',(#306,#307,#308,#309));
#73=EDGE_LOOP('',(#310,#311,#312,#313,#314,#315));
#74=EDGE_LOOP('',(#316));
#75=LINE('',#514,#105);
#76=LINE('',#517,#106);
#77=LINE('',#520,#107);
#78=LINE('',#522,#108);
#79=LINE('',#523,#109);
#80=LINE('',#526,#110);
#81=LINE('',#530,#111);
#82=LINE('',#531,#112);
#83=LINE('',#538,#113);
#84=LINE('',#539,#114);
#85=LINE('',#542,#115);
#86=LINE('',#543,#116);
#87=LINE('',#549,#117);
#88=LINE('',#552,#118);
#89=LINE('',#555,#119);
#90=LINE('',#557,#120);
#91=LINE('',#558,#121);
#92=LINE('',#561,#122);
#93=LINE('',#563,#123);
#94=LINE('',#565,#124);
#95=LINE('',#572,#125);
#96=LINE('',#575,#126);
#97=LINE('',#576,#127);
#98=LINE('',#579,#128);
#99=LINE('',#583,#129);
#100=LINE('',#587,#130);
#101=LINE('',#588,#131);
#102=LINE('',#595,#132);
#103=LINE('',#598,#133);
#104=LINE('',#601,#134);
#105=VECTOR('',#410,10.);
#106=VECTOR('',#413,10.);
#107=VECTOR('',#416,10.);
#108=VECTOR('',#417,10.);
#109=VECTOR('',#418,10.);
#110=VECTOR('',#421,10.);
#111=VECTOR('',#424,10.);
#112=VECTOR('',#425,10.);
#113=VECTOR('',#432,10.);
#114=VECTOR('',#433,10.);
#115=VECTOR('',#436,10.);
#116=VECTOR('',#437,10.);
#117=VECTOR('',#442,10.);
#118=VECTOR('',#445,10.);
#119=VECTOR('',#448,10.);
#120=VECTOR('',#449,10.);
#121=VECTOR('',#450,10.);
#122=VECTOR('',#453,3.76);
#123=VECTOR('',#454,10.);
#124=VECTOR('',#455,3.76);
#125=VECTOR('',#464,10.);
#126=VECTOR('',#467,10.);
#127=VECTOR('',#468,10.);
#128=VECTOR('',#471,7.);
#129=VECTOR('',#476,10.);
#130=VECTOR('',#483,3.76);
#131=VECTOR('',#484,10.);
#132=VECTOR('',#497,10.);
#133=VECTOR('',#500,7.);
#134=VECTOR('',#505,10.);
#135=CIRCLE('',#369,3.);
#136=CIRCLE('',#370,3.);
#137=CIRCLE('',#373,3.);
#138=CIRCLE('',#374,7.);
#139=CIRCLE('',#376,3.);
#140=CIRCLE('',#379,3.);
#141=CIRCLE('',#380,3.);
#142=CIRCLE('',#383,3.);
#143=CIRCLE('',#384,7.);
#144=CIRCLE('',#386,3.);
#145=CIRCLE('',#389,7.);
#146=CIRCLE('',#391,6.00000000000001);
#147=CIRCLE('',#392,6.);
#148=CIRCLE('',#395,2.);
#149=CIRCLE('',#397,2.);
#150=CIRCLE('',#401,7.);
#151=VERTEX_POINT('',#510);
#152=VERTEX_POINT('',#511);
#153=VERTEX_POINT('',#513);
#154=VERTEX_POINT('',#515);
#155=VERTEX_POINT('',#519);
#156=VERTEX_POINT('',#521);
#157=VERTEX_POINT('',#525);
#158=VERTEX_POINT('',#527);
#159=VERTEX_POINT('',#529);
#160=VERTEX_POINT('',#532);
#161=VERTEX_POINT('',#535);
#162=VERTEX_POINT('',#536);
#163=VERTEX_POINT('',#541);
#164=VERTEX_POINT('',#545);
#165=VERTEX_POINT('',#546);
#166=VERTEX_POINT('',#548);
#167=VERTEX_POINT('',#550);
#168=VERTEX_POINT('',#554);
#169=VERTEX_POINT('',#556);
#170=VERTEX_POINT('',#560);
#171=VERTEX_POINT('',#562);
#172=VERTEX_POINT('',#564);
#173=VERTEX_POINT('',#567);
#174=VERTEX_POINT('',#570);
#175=VERTEX_POINT('',#574);
#176=VERTEX_POINT('',#578);
#177=VERTEX_POINT('',#582);
#178=VERTEX_POINT('',#597);
#179=EDGE_CURVE('',#151,#152,#135,.T.);
#180=EDGE_CURVE('',#152,#153,#75,.T.);
#181=EDGE_CURVE('',#153,#154,#136,.T.);
#182=EDGE_CURVE('',#154,#151,#76,.T.);
#183=EDGE_CURVE('',#155,#154,#77,.T.);
#184=EDGE_CURVE('',#155,#156,#78,.T.);
#185=EDGE_CURVE('',#156,#151,#79,.T.);
#186=EDGE_CURVE('',#153,#157,#80,.T.);
#187=EDGE_CURVE('',#158,#157,#137,.T.);
#188=EDGE_CURVE('',#158,#159,#81,.T.);
#189=EDGE_CURVE('',#159,#155,#82,.T.);
#190=EDGE_CURVE('',#160,#160,#138,.T.);
#191=EDGE_CURVE('',#161,#162,#139,.T.);
#192=EDGE_CURVE('',#162,#158,#83,.T.);
#193=EDGE_CURVE('',#157,#161,#84,.T.);
#194=EDGE_CURVE('',#162,#163,#85,.T.);
#195=EDGE_CURVE('',#163,#159,#86,.T.);
#196=EDGE_CURVE('',#164,#165,#140,.T.);
#197=EDGE_CURVE('',#165,#166,#87,.T.);
#198=EDGE_CURVE('',#166,#167,#141,.T.);
#199=EDGE_CURVE('',#167,#164,#88,.T.);
#200=EDGE_CURVE('',#168,#167,#89,.T.);
#201=EDGE_CURVE('',#169,#168,#90,.T.);
#202=EDGE_CURVE('',#169,#164,#91,.T.);
#203=EDGE_CURVE('',#166,#170,#92,.T.);
#204=EDGE_CURVE('',#170,#171,#93,.T.);
#205=EDGE_CURVE('',#172,#171,#94,.T.);
#206=EDGE_CURVE('',#168,#172,#142,.T.);
#207=EDGE_CURVE('',#173,#173,#143,.T.);
#208=EDGE_CURVE('',#174,#169,#144,.T.);
#209=EDGE_CURVE('',#172,#174,#95,.T.);
#210=EDGE_CURVE('',#171,#175,#96,.T.);
#211=EDGE_CURVE('',#175,#174,#97,.T.);
#212=EDGE_CURVE('',#173,#176,#98,.T.);
#213=EDGE_CURVE('',#176,#176,#145,.T.);
#214=EDGE_CURVE('',#175,#177,#99,.T.);
#215=EDGE_CURVE('',#155,#175,#146,.T.);
#216=EDGE_CURVE('',#177,#159,#147,.T.);
#217=EDGE_CURVE('',#165,#177,#100,.T.);
#218=EDGE_CURVE('',#177,#170,#101,.T.);
#219=EDGE_CURVE('',#171,#156,#148,.T.);
#220=EDGE_CURVE('',#170,#163,#149,.T.);
#221=EDGE_CURVE('',#156,#163,#102,.T.);
#222=EDGE_CURVE('',#160,#178,#103,.T.);
#223=EDGE_CURVE('',#178,#178,#150,.T.);
#224=EDGE_CURVE('',#152,#161,#104,.T.);
#225=ORIENTED_EDGE('',*,*,#179,.T.);
#226=ORIENTED_EDGE('',*,*,#180,.T.);
#227=ORIENTED_EDGE('',*,*,#181,.T.);
#228=ORIENTED_EDGE('',*,*,#182,.T.);
#229=ORIENTED_EDGE('',*,*,#182,.F.);
#230=ORIENTED_EDGE('',*,*,#183,.F.);
#231=ORIENTED_EDGE('',*,*,#184,.T.);
#232=ORIENTED_EDGE('',*,*,#185,.T.);
#233=ORIENTED_EDGE('',*,*,#181,.F.);
#234=ORIENTED_EDGE('',*,*,#186,.T.);
#235=ORIENTED_EDGE('',*,*,#187,.F.);
#236=ORIENTED_EDGE('',*,*,#188,.T.);
#237=ORIENTED_EDGE('',*,*,#189,.T.);
#238=ORIENTED_EDGE('',*,*,#183,.T.);
#239=ORIENTED_EDGE('',*,*,#190,.T.);
#240=ORIENTED_EDGE('',*,*,#191,.T.);
#241=ORIENTED_EDGE('',*,*,#192,.T.);
#242=ORIENTED_EDGE('',*,*,#187,.T.);
#243=ORIENTED_EDGE('',*,*,#193,.T.);
#244=ORIENTED_EDGE('',*,*,#192,.F.);
#245=ORIENTED_EDGE('',*,*,#194,.T.);
#246=ORIENTED_EDGE('',*,*,#195,.T.);
#247=ORIENTED_EDGE('',*,*,#188,.F.);
#248=ORIENTED_EDGE('',*,*,#196,.T.);
#249=ORIENTED_EDGE('',*,*,#197,.T.);
#250=ORIENTED_EDGE('',*,*,#198,.T.);
#251=ORIENTED_EDGE('',*,*,#199,.T.);
#252=ORIENTED_EDGE('',*,*,#199,.F.);
#253=ORIENTED_EDGE('',*,*,#200,.F.);
#254=ORIENTED_EDGE('',*,*,#201,.F.);
#255=ORIENTED_EDGE('',*,*,#202,.T.);
#256=ORIENTED_EDGE('',*,*,#198,.F.);
#257=ORIENTED_EDGE('',*,*,#203,.T.);
#258=ORIENTED_EDGE('',*,*,#204,.T.);
#259=ORIENTED_EDGE('',*,*,#205,.F.);
#260=ORIENTED_EDGE('',*,*,#206,.F.);
#261=ORIENTED_EDGE('',*,*,#200,.T.);
#262=ORIENTED_EDGE('',*,*,#207,.T.);
#263=ORIENTED_EDGE('',*,*,#208,.T.);
#264=ORIENTED_EDGE('',*,*,#201,.T.);
#265=ORIENTED_EDGE('',*,*,#206,.T.);
#266=ORIENTED_EDGE('',*,*,#209,.T.);
#267=ORIENTED_EDGE('',*,*,#209,.F.);
#268=ORIENTED_EDGE('',*,*,#205,.T.);
#269=ORIENTED_EDGE('',*,*,#210,.T.);
#270=ORIENTED_EDGE('',*,*,#211,.T.);
#271=ORIENTED_EDGE('',*,*,#207,.F.);
#272=ORIENTED_EDGE('',*,*,#212,.T.);
#273=ORIENTED_EDGE('',*,*,#213,.F.);
#274=ORIENTED_EDGE('',*,*,#212,.F.);
#275=ORIENTED_EDGE('',*,*,#214,.F.);
#276=ORIENTED_EDGE('',*,*,#215,.F.);
#277=ORIENTED_EDGE('',*,*,#189,.F.);
#278=ORIENTED_EDGE('',*,*,#216,.F.);
#279=ORIENTED_EDGE('',*,*,#197,.F.);
#280=ORIENTED_EDGE('',*,*,#217,.T.);
#281=ORIENTED_EDGE('',*,*,#218,.T.);
#282=ORIENTED_EDGE('',*,*,#203,.F.);
#283=ORIENTED_EDGE('',*,*,#210,.F.);
#284=ORIENTED_EDGE('',*,*,#219,.T.);
#285=ORIENTED_EDGE('',*,*,#184,.F.);
#286=ORIENTED_EDGE('',*,*,#215,.T.);
#287=ORIENTED_EDGE('',*,*,#218,.F.);
#288=ORIENTED_EDGE('',*,*,#216,.T.);
#289=ORIENTED_EDGE('',*,*,#195,.F.);
#290=ORIENTED_EDGE('',*,*,#220,.F.);
#291=ORIENTED_EDGE('',*,*,#196,.F.);
#292=ORIENTED_EDGE('',*,*,#202,.F.);
#293=ORIENTED_EDGE('',*,*,#208,.F.);
#294=ORIENTED_EDGE('',*,*,#211,.F.);
#295=ORIENTED_EDGE('',*,*,#214,.T.);
#296=ORIENTED_EDGE('',*,*,#217,.F.);
#297=ORIENTED_EDGE('',*,*,#213,.T.);
#298=ORIENTED_EDGE('',*,*,#204,.F.);
#299=ORIENTED_EDGE('',*,*,#220,.T.);
#300=ORIENTED_EDGE('',*,*,#221,.F.);
#301=ORIENTED_EDGE('',*,*,#219,.F.);
#302=ORIENTED_EDGE('',*,*,#190,.F.);
#303=ORIENTED_EDGE('',*,*,#222,.T.);
#304=ORIENTED_EDGE('',*,*,#223,.F.);
#305=ORIENTED_EDGE('',*,*,#222,.F.);
#306=ORIENTED_EDGE('',*,*,#180,.F.);
#307=ORIENTED_EDGE('',*,*,#224,.T.);
#308=ORIENTED_EDGE('',*,*,#193,.F.);
#309=ORIENTED_EDGE('',*,*,#186,.F.);
#310=ORIENTED_EDGE('',*,*,#179,.F.);
#311=ORIENTED_EDGE('',*,*,#185,.F.);
#312=ORIENTED_EDGE('',*,*,#221,.T.);
#313=ORIENTED_EDGE('',*,*,#194,.F.);
#314=ORIENTED_EDGE('',*,*,#191,.F.);
#315=ORIENTED_EDGE('',*,*,#224,.F.);
#316=ORIENTED_EDGE('',*,*,#223,.T.);
#317=CYLINDRICAL_SURFACE('',#368,3.);
#318=CYLINDRICAL_SURFACE('',#375,3.);
#319=CYLINDRICAL_SURFACE('',#378,3.);
#320=CYLINDRICAL_SURFACE('',#385,3.);
#321=CYLINDRICAL_SURFACE('',#388,7.);
#322=CYLINDRICAL_SURFACE('',#390,6.00000000000001);
#323=CYLINDRICAL_SURFACE('',#399,2.00000000000001);
#324=CYLINDRICAL_SURFACE('',#400,7.);
#325=ADVANCED_FACE('',(#31),#317,.T.);
#326=ADVANCED_FACE('',(#32),#19,.T.);
#327=ADVANCED_FACE('',(#33,#15),#20,.F.);
#328=ADVANCED_FACE('',(#34),#318,.T.);
#329=ADVANCED_FACE('',(#35),#21,.T.);
#330=ADVANCED_FACE('',(#36),#319,.T.);
#331=ADVANCED_FACE('',(#37),#22,.T.);
#332=ADVANCED_FACE('',(#38,#16),#23,.T.);
#333=ADVANCED_FACE('',(#39),#320,.T.);
#334=ADVANCED_FACE('',(#40),#24,.T.);
#335=ADVANCED_FACE('',(#41),#321,.F.);
#336=ADVANCED_FACE('',(#42),#322,.T.);
#337=ADVANCED_FACE('',(#43),#25,.T.);
#338=ADVANCED_FACE('',(#44),#26,.T.);
#339=ADVANCED_FACE('',(#45),#27,.T.);
#340=ADVANCED_FACE('',(#46,#17),#28,.F.);
#341=ADVANCED_FACE('',(#47),#323,.F.);
#342=ADVANCED_FACE('',(#48),#324,.F.);
#343=ADVANCED_FACE('',(#49),#29,.T.);
#344=ADVANCED_FACE('',(#50,#18),#30,.T.);
#345=CLOSED_SHELL('',(#325,#326,#327,#328,#329,#330,#331,#332,#333,#334,
#335,#336,#337,#338,#339,#340,#341,#342,#343,#344));
#346=DERIVED_UNIT_ELEMENT(#349,1.);
#347=DERIVED_UNIT_ELEMENT(#608,-3.);
#348=DIMENSIONAL_EXPONENTS(0.,1.,0.,0.,0.,0.,0.);
#349=(
CONVERSION_BASED_UNIT('gram',#351)
MASS_UNIT()
NAMED_UNIT(#348)
);
#350=(
MASS_UNIT()
NAMED_UNIT(*)
SI_UNIT(.KILO.,.GRAM.)
);
#351=MASS_MEASURE_WITH_UNIT(MASS_MEASURE(0.001),#350);
#352=DERIVED_UNIT((#346,#347));
#353=MEASURE_REPRESENTATION_ITEM('density measure',
POSITIVE_RATIO_MEASURE(1.),#352);
#354=PROPERTY_DEFINITION_REPRESENTATION(#359,#356);
#355=PROPERTY_DEFINITION_REPRESENTATION(#360,#357);
#356=REPRESENTATION('material name',(#358),#605);
#357=REPRESENTATION('density',(#353),#605);
#358=DESCRIPTIVE_REPRESENTATION_ITEM('\X2\04220438043F043E0432044B0435\X0\',
'\X2\04220438043F043E0432044B0435\X0\');
#359=PROPERTY_DEFINITION('material property','material name',#615);
#360=PROPERTY_DEFINITION('material property','density of part',#615);
#361=DATE_TIME_ROLE('creation_date');
#362=APPLIED_DATE_AND_TIME_ASSIGNMENT(#363,#361,(#615));
#363=DATE_AND_TIME(#364,#365);
#364=CALENDAR_DATE(2019,1,7);
#365=LOCAL_TIME(0,0,0.,#366);
#366=COORDINATED_UNIVERSAL_TIME_OFFSET(0,0,.BEHIND.);
#367=AXIS2_PLACEMENT_3D('',#508,#404,#405);
#368=AXIS2_PLACEMENT_3D('',#509,#406,#407);
#369=AXIS2_PLACEMENT_3D('',#512,#408,#409);
#370=AXIS2_PLACEMENT_3D('',#516,#411,#412);
#371=AXIS2_PLACEMENT_3D('',#518,#414,#415);
#372=AXIS2_PLACEMENT_3D('',#524,#419,#420);
#373=AXIS2_PLACEMENT_3D('',#528,#422,#423);
#374=AXIS2_PLACEMENT_3D('',#533,#426,#427);
#375=AXIS2_PLACEMENT_3D('',#534,#428,#429);
#376=AXIS2_PLACEMENT_3D('',#537,#430,#431);
#377=AXIS2_PLACEMENT_3D('',#540,#434,#435);
#378=AXIS2_PLACEMENT_3D('',#544,#438,#439);
#379=AXIS2_PLACEMENT_3D('',#547,#440,#441);
#380=AXIS2_PLACEMENT_3D('',#551,#443,#444);
#381=AXIS2_PLACEMENT_3D('',#553,#446,#447);
#382=AXIS2_PLACEMENT_3D('',#559,#451,#452);
#383=AXIS2_PLACEMENT_3D('',#566,#456,#457);
#384=AXIS2_PLACEMENT_3D('',#568,#458,#459);
#385=AXIS2_PLACEMENT_3D('',#569,#460,#461);
#386=AXIS2_PLACEMENT_3D('',#571,#462,#463);
#387=AXIS2_PLACEMENT_3D('',#573,#465,#466);
#388=AXIS2_PLACEMENT_3D('',#577,#469,#470);
#389=AXIS2_PLACEMENT_3D('',#580,#472,#473);
#390=AXIS2_PLACEMENT_3D('',#581,#474,#475);
#391=AXIS2_PLACEMENT_3D('',#584,#477,#478);
#392=AXIS2_PLACEMENT_3D('',#585,#479,#480);
#393=AXIS2_PLACEMENT_3D('',#586,#481,#482);
#394=AXIS2_PLACEMENT_3D('',#589,#485,#486);
#395=AXIS2_PLACEMENT_3D('',#590,#487,#488);
#396=AXIS2_PLACEMENT_3D('',#591,#489,#490);
#397=AXIS2_PLACEMENT_3D('',#592,#491,#492);
#398=AXIS2_PLACEMENT_3D('',#593,#493,#494);
#399=AXIS2_PLACEMENT_3D('',#594,#495,#496);
#400=AXIS2_PLACEMENT_3D('',#596,#498,#499);
#401=AXIS2_PLACEMENT_3D('',#599,#501,#502);
#402=AXIS2_PLACEMENT_3D('',#600,#503,#504);
#403=AXIS2_PLACEMENT_3D('',#602,#506,#507);
#404=DIRECTION('axis',(0.,0.,1.));
#405=DIRECTION('refdir',(1.,0.,0.));
#406=DIRECTION('center_axis',(0.,1.,0.));
#407=DIRECTION('ref_axis',(0.707106781186547,0.,0.707106781186548));
#408=DIRECTION('center_axis',(0.,-1.,0.));
#409=DIRECTION('ref_axis',(0.707106781186547,0.,0.707106781186548));
#410=DIRECTION('',(0.,-1.,0.));
#411=DIRECTION('center_axis',(0.,1.,0.));
#412=DIRECTION('ref_axis',(0.707106781186547,0.,0.707106781186548));
#413=DIRECTION('',(0.,1.,0.));
#414=DIRECTION('center_axis',(1.,0.,0.));
#415=DIRECTION('ref_axis',(0.,0.,-1.));
#416=DIRECTION('',(0.,0.,1.));
#417=DIRECTION('',(0.,1.,0.));
#418=DIRECTION('',(0.,0.,1.));
#419=DIRECTION('center_axis',(0.,1.,0.));
#420=DIRECTION('ref_axis',(0.,0.,1.));
#421=DIRECTION('',(-1.,0.,0.));
#422=DIRECTION('center_axis',(0.,1.,0.));
#423=DIRECTION('ref_axis',(-0.707106781186547,0.,0.707106781186548));
#424=DIRECTION('',(0.,0.,-1.));
#425=DIRECTION('',(1.,0.,0.));
#426=DIRECTION('center_axis',(0.,1.,0.));
#427=DIRECTION('ref_axis',(1.,0.,0.));
#428=DIRECTION('center_axis',(0.,1.,0.));
#429=DIRECTION('ref_axis',(-0.707106781186547,0.,0.707106781186548));
#430=DIRECTION('center_axis',(0.,-1.,0.));
#431=DIRECTION('ref_axis',(-0.707106781186547,0.,0.707106781186548));
#432=DIRECTION('',(0.,-1.,0.));
#433=DIRECTION('',(0.,1.,0.));
#434=DIRECTION('center_axis',(-1.,0.,0.));
#435=DIRECTION('ref_axis',(0.,0.,1.));
#436=DIRECTION('',(0.,0.,-1.));
#437=DIRECTION('',(0.,-1.,0.));
#438=DIRECTION('center_axis',(0.,-0.70710678118655,-0.707106781186546));
#439=DIRECTION('ref_axis',(-0.707106781186548,0.5,-0.5));
#440=DIRECTION('center_axis',(1.00821535355917E-17,0.70710678118655,0.707106781186545));
#441=DIRECTION('ref_axis',(-0.707106781186548,0.5,-0.5));
#442=DIRECTION('',(0.,0.707106781186549,0.707106781186546));
#443=DIRECTION('center_axis',(1.00821535355917E-17,-0.70710678118655,-0.707106781186545));
#444=DIRECTION('ref_axis',(-0.707106781186548,0.5,-0.5));
#445=DIRECTION('',(0.,-0.707106781186549,-0.707106781186546));
#446=DIRECTION('center_axis',(0.,0.707106781186546,-0.70710678118655));
#447=DIRECTION('ref_axis',(-1.,0.,0.));
#448=DIRECTION('',(-1.,0.,0.));
#449=DIRECTION('',(0.,0.707106781186549,0.707106781186546));
#450=DIRECTION('',(-1.,0.,0.));
#451=DIRECTION('center_axis',(-1.00821535355917E-17,0.70710678118655,0.707106781186545));
#452=DIRECTION('ref_axis',(0.,-0.707106781186545,0.70710678118655));
#453=DIRECTION('',(0.,-0.707106781186546,0.707106781186549));
#454=DIRECTION('',(1.,7.12915913398085E-18,7.12915913398082E-18));
#455=DIRECTION('',(0.,-0.707106781186546,0.707106781186549));
#456=DIRECTION('center_axis',(1.00821535355917E-17,-0.70710678118655,-0.707106781186545));
#457=DIRECTION('ref_axis',(0.707106781186549,0.499999999999998,-0.5));
#458=DIRECTION('center_axis',(1.00821535355917E-17,-0.70710678118655,-0.707106781186545));
#459=DIRECTION('ref_axis',(-1.,-2.20106279358541E-33,5.50265698396353E-33));
#460=DIRECTION('center_axis',(0.,-0.70710678118655,-0.707106781186546));
#461=DIRECTION('ref_axis',(0.707106781186549,0.499999999999998,-0.5));
#462=DIRECTION('center_axis',(1.00821535355917E-17,0.70710678118655,0.707106781186545));
#463=DIRECTION('ref_axis',(0.707106781186549,0.499999999999998,-0.5));
#464=DIRECTION('',(0.,-0.707106781186549,-0.707106781186546));
#465=DIRECTION('center_axis',(1.,0.,0.));
#466=DIRECTION('ref_axis',(0.,0.707106781186546,-0.707106781186549));
#467=DIRECTION('',(0.,-0.707106781186549,-0.707106781186546));
#468=DIRECTION('',(0.,0.707106781186545,-0.70710678118655));
#469=DIRECTION('center_axis',(0.,-0.707106781186549,-0.707106781186546));
#470=DIRECTION('ref_axis',(-1.,-2.20106279358541E-33,5.50265698396353E-33));
#471=DIRECTION('',(0.,-0.707106781186549,-0.707106781186546));
#472=DIRECTION('center_axis',(1.00821535355917E-17,0.70710678118655,0.707106781186545));
#473=DIRECTION('ref_axis',(-1.,-2.20106279358541E-33,5.50265698396353E-33));
#474=DIRECTION('center_axis',(1.,0.,0.));
#475=DIRECTION('ref_axis',(0.,-1.,0.));
#476=DIRECTION('',(-1.,7.12915913398083E-18,7.12915913398079E-18));
#477=DIRECTION('center_axis',(1.,0.,0.));
#478=DIRECTION('ref_axis',(0.,-1.,0.));
#479=DIRECTION('center_axis',(-1.,0.,0.));
#480=DIRECTION('ref_axis',(0.,-0.707106781186549,-0.707106781186546));
#481=DIRECTION('center_axis',(-1.,0.,0.));
#482=DIRECTION('ref_axis',(0.,-0.707106781186546,0.707106781186549));
#483=DIRECTION('',(0.,-0.707106781186546,0.707106781186549));
#484=DIRECTION('',(0.,0.707106781186549,0.707106781186546));
#485=DIRECTION('center_axis',(1.,0.,0.));
#486=DIRECTION('ref_axis',(0.,0.,-1.));
#487=DIRECTION('center_axis',(-1.,0.,0.));
#488=DIRECTION('ref_axis',(0.,-0.707106781186549,-0.707106781186546));
#489=DIRECTION('center_axis',(-1.,0.,0.));
#490=DIRECTION('ref_axis',(0.,0.,1.));
#491=DIRECTION('center_axis',(-1.,0.,0.));
#492=DIRECTION('ref_axis',(0.,-0.707106781186549,-0.707106781186546));
#493=DIRECTION('center_axis',(1.00821535355917E-17,0.70710678118655,0.707106781186545));
#494=DIRECTION('ref_axis',(0.,-0.707106781186545,0.70710678118655));
#495=DIRECTION('center_axis',(1.,0.,0.));
#496=DIRECTION('ref_axis',(0.,-1.,0.));
#497=DIRECTION('',(-1.,0.,0.));
#498=DIRECTION('center_axis',(0.,1.,0.));
#499=DIRECTION('ref_axis',(1.,0.,0.));
#500=DIRECTION('',(0.,1.,0.));
#501=DIRECTION('center_axis',(0.,-1.,0.));
#502=DIRECTION('ref_axis',(1.,0.,0.));
#503=DIRECTION('center_axis',(0.,0.,1.));
#504=DIRECTION('ref_axis',(1.,0.,0.));
#505=DIRECTION('',(-1.,0.,0.));
#506=DIRECTION('center_axis',(0.,1.,0.));
#507=DIRECTION('ref_axis',(0.,0.,1.));
#508=CARTESIAN_POINT('',(0.,0.,0.));
#509=CARTESIAN_POINT('Origin',(-3.,0.,-3.00000000000001));
#510=CARTESIAN_POINT('',(0.,4.,-3.00000000000001));
#511=CARTESIAN_POINT('',(-3.,4.,0.));
#512=CARTESIAN_POINT('Origin',(-3.,4.,-3.00000000000001));
#513=CARTESIAN_POINT('',(-3.,0.,0.));
#514=CARTESIAN_POINT('',(-3.,0.,0.));
#515=CARTESIAN_POINT('',(0.,0.,-3.00000000000001));
#516=CARTESIAN_POINT('Origin',(-3.,0.,-3.00000000000001));
#517=CARTESIAN_POINT('',(0.,0.,-3.00000000000001));
#518=CARTESIAN_POINT('Origin',(0.,0.,-83.));
#519=CARTESIAN_POINT('',(0.,-5.55111512312578E-16,-80.5147186257614));
#520=CARTESIAN_POINT('',(0.,0.,-83.));
#521=CARTESIAN_POINT('',(0.,4.,-80.5147186257614));
#522=CARTESIAN_POINT('',(0.,2.,-80.5147186257614));
#523=CARTESIAN_POINT('',(0.,4.,-83.));
#524=CARTESIAN_POINT('Origin',(-20.,0.,-41.5));
#525=CARTESIAN_POINT('',(-37.,0.,0.));
#526=CARTESIAN_POINT('',(0.,0.,0.));
#527=CARTESIAN_POINT('',(-40.,0.,-3.));
#528=CARTESIAN_POINT('Origin',(-37.,0.,-3.));
#529=CARTESIAN_POINT('',(-40.,-5.55111512312578E-16,-80.5147186257614));
#530=CARTESIAN_POINT('',(-40.,0.,0.));
#531=CARTESIAN_POINT('',(-30.,0.,-80.5147186257614));
#532=CARTESIAN_POINT('',(-27.,0.,-20.));
#533=CARTESIAN_POINT('Origin',(-20.,0.,-20.));
#534=CARTESIAN_POINT('Origin',(-37.,0.,-3.));
#535=CARTESIAN_POINT('',(-37.,4.,0.));
#536=CARTESIAN_POINT('',(-40.,4.,-3.));
#537=CARTESIAN_POINT('Origin',(-37.,4.,-3.));
#538=CARTESIAN_POINT('',(-40.,0.,-3.));
#539=CARTESIAN_POINT('',(-37.,0.,0.));
#540=CARTESIAN_POINT('Origin',(-40.,0.,0.));
#541=CARTESIAN_POINT('',(-40.,4.,-80.5147186257614));
#542=CARTESIAN_POINT('',(-40.,4.,0.));
#543=CARTESIAN_POINT('',(-40.,2.,-80.5147186257614));
#544=CARTESIAN_POINT('Origin',(-37.,37.7100046406785,-115.053150391186));
#545=CARTESIAN_POINT('',(-37.,37.0028978594919,-120.002897859492));
#546=CARTESIAN_POINT('',(-40.,34.8815775159323,-117.881577515932));
#547=CARTESIAN_POINT('Origin',(-37.,34.8815775159323,-117.881577515933));
#548=CARTESIAN_POINT('',(-40.,37.7100046406785,-115.053150391186));
#549=CARTESIAN_POINT('',(-40.,37.7100046406785,-115.053150391186));
#550=CARTESIAN_POINT('',(-37.,39.8313249842381,-117.174470734746));
#551=CARTESIAN_POINT('Origin',(-37.,37.7100046406785,-115.053150391186));
#552=CARTESIAN_POINT('',(-37.,39.8313249842382,-117.174470734746));
#553=CARTESIAN_POINT('Origin',(0.,39.8313249842381,-117.174470734746));
#554=CARTESIAN_POINT('',(-3.,39.8313249842381,-117.174470734746));
#555=CARTESIAN_POINT('',(0.,39.8313249842381,-117.174470734746));
#556=CARTESIAN_POINT('',(-3.,37.0028978594919,-120.002897859492));
#557=CARTESIAN_POINT('',(-3.,39.8313249842382,-117.174470734746));
#558=CARTESIAN_POINT('',(0.,37.0028978594919,-120.002897859492));
#559=CARTESIAN_POINT('Origin',(-20.,21.1644782204653,-98.507623970973));
#560=CARTESIAN_POINT('',(-40.,4.58578643762691,-81.9289321881345));
#561=CARTESIAN_POINT('',(-40.,-3.76683348611079,-73.5763122643968));
#562=CARTESIAN_POINT('',(0.,4.58578643762691,-81.9289321881345));
#563=CARTESIAN_POINT('',(-20.,4.58578643762691,-81.9289321881345));
#564=CARTESIAN_POINT('',(0.,37.7100046406785,-115.053150391186));
#565=CARTESIAN_POINT('',(0.,-3.76683348611079,-73.5763122643968));
#566=CARTESIAN_POINT('Origin',(-3.,37.7100046406785,-115.053150391186));
#567=CARTESIAN_POINT('',(-13.,25.6891893605072,-103.032335111015));
#568=CARTESIAN_POINT('Origin',(-20.,25.6891893605072,-103.032335111015));
#569=CARTESIAN_POINT('Origin',(-3.,37.7100046406785,-115.053150391186));
#570=CARTESIAN_POINT('',(0.,34.8815775159323,-117.881577515933));
#571=CARTESIAN_POINT('Origin',(-3.,34.8815775159323,-117.881577515933));
#572=CARTESIAN_POINT('',(0.,37.7100046406785,-115.053150391186));
#573=CARTESIAN_POINT('Origin',(0.,4.58578643762691,-81.9289321881345));
#574=CARTESIAN_POINT('',(0.,1.75735931288071,-84.7573593128807));
#575=CARTESIAN_POINT('',(0.,3.96353247018275,-82.5511861555787));
#576=CARTESIAN_POINT('',(0.,1.75735931288069,-84.7573593128807));
#577=CARTESIAN_POINT('Origin',(-20.,25.6891893605072,-103.032335111015));
#578=CARTESIAN_POINT('',(-13.,22.860762235761,-105.860762235761));
#579=CARTESIAN_POINT('',(-13.,25.6891893605072,-103.032335111015));
#580=CARTESIAN_POINT('Origin',(-20.,22.860762235761,-105.860762235761));
#581=CARTESIAN_POINT('Origin',(-20.,6.,-80.5147186257614));
#582=CARTESIAN_POINT('',(-40.,1.75735931288071,-84.7573593128807));
#583=CARTESIAN_POINT('',(-20.,1.75735931288071,-84.7573593128807));
#584=CARTESIAN_POINT('Origin',(0.,6.,-80.5147186257614));
#585=CARTESIAN_POINT('Origin',(-40.,6.,-80.5147186257614));
#586=CARTESIAN_POINT('Origin',(-40.,4.58578643762691,-81.9289321881345));
#587=CARTESIAN_POINT('',(-40.,-6.595260610857,-76.404739389143));
#588=CARTESIAN_POINT('',(-40.,3.96353247018275,-82.5511861555787));
#589=CARTESIAN_POINT('Origin',(0.,4.5857864376269,-81.9289321881345));
#590=CARTESIAN_POINT('Origin',(0.,6.,-80.5147186257614));
#591=CARTESIAN_POINT('Origin',(-40.,1.75735931288071,-84.7573593128807));
#592=CARTESIAN_POINT('Origin',(-40.,6.,-80.5147186257614));
#593=CARTESIAN_POINT('Origin',(-20.,18.3360510957191,-101.336051095719));
#594=CARTESIAN_POINT('Origin',(-20.,6.,-80.5147186257614));
#595=CARTESIAN_POINT('',(-30.,4.,-80.5147186257614));
#596=CARTESIAN_POINT('Origin',(-20.,0.,-20.));
#597=CARTESIAN_POINT('',(-27.,4.,-20.));
#598=CARTESIAN_POINT('',(-27.,0.,-20.));
#599=CARTESIAN_POINT('Origin',(-20.,4.,-20.));
#600=CARTESIAN_POINT('Origin',(0.,0.,0.));
#601=CARTESIAN_POINT('',(0.,4.,0.));
#602=CARTESIAN_POINT('Origin',(-20.,4.,-41.5));
#603=UNCERTAINTY_MEASURE_WITH_UNIT(LENGTH_MEASURE(0.01),#607,
'DISTANCE_ACCURACY_VALUE',
'Maximum model space distance between geometric entities at asserted c
onnectivities');
#604=UNCERTAINTY_MEASURE_WITH_UNIT(LENGTH_MEASURE(0.01),#607,
'DISTANCE_ACCURACY_VALUE',
'Maximum model space distance between geometric entities at asserted c
onnectivities');
#605=(
GEOMETRIC_REPRESENTATION_CONTEXT(3)
GLOBAL_UNCERTAINTY_ASSIGNED_CONTEXT((#603))
GLOBAL_UNIT_ASSIGNED_CONTEXT((#607,#609,#610))
REPRESENTATION_CONTEXT('','3D')
);
#606=(
GEOMETRIC_REPRESENTATION_CONTEXT(3)
GLOBAL_UNCERTAINTY_ASSIGNED_CONTEXT((#604))
GLOBAL_UNIT_ASSIGNED_CONTEXT((#607,#609,#610))
REPRESENTATION_CONTEXT('','3D')
);
#607=(
LENGTH_UNIT()
NAMED_UNIT(*)
SI_UNIT(.MILLI.,.METRE.)
);
#608=(
LENGTH_UNIT()
NAMED_UNIT(*)
SI_UNIT(.CENTI.,.METRE.)
);
#609=(
NAMED_UNIT(*)
PLANE_ANGLE_UNIT()
SI_UNIT($,.RADIAN.)
);
#610=(
NAMED_UNIT(*)
SI_UNIT($,.STERADIAN.)
SOLID_ANGLE_UNIT()
);
#611=SHAPE_DEFINITION_REPRESENTATION(#612,#613);
#612=PRODUCT_DEFINITION_SHAPE('',$,#615);
#613=SHAPE_REPRESENTATION('',(#367),#605);
#614=PRODUCT_DEFINITION_CONTEXT('part definition',#619,'design');
#615=PRODUCT_DEFINITION(
'\X2\04230433043E043B043E043A\X0\ 45 \X2\04330440\X0\. \X2\0441\X0\ \X2\043404320443043C044F\X0\ 
\X2\043E0442043204350440044104420438044F043C0438\X0\, USG45',
'308230 USG45x2',#616,#614);
#616=PRODUCT_DEFINITION_FORMATION('',$,#621);
#617=PRODUCT_RELATED_PRODUCT_CATEGORY('308230 USG45x2','308230 USG45x2',
(#621));
#618=APPLICATION_PROTOCOL_DEFINITION('international standard',
'automotive_design',2009,#619);
#619=APPLICATION_CONTEXT(
'Core Data for Automotive Mechanical Design Process');
#620=PRODUCT_CONTEXT('part definition',#619,'mechanical');
#621=PRODUCT(
'\X2\04230433043E043B043E043A\X0\ 45 \X2\04330440\X0\. \X2\0441\X0\ \X2\043404320443043C044F\X0\ 
\X2\043E0442043204350440044104420438044F043C0438\X0\, USG45',
'308230 USG45x2',$,(#620));
#622=PRESENTATION_STYLE_ASSIGNMENT((#623));
#623=SURFACE_STYLE_USAGE(.BOTH.,#624);
#624=SURFACE_SIDE_STYLE('',(#625));
#625=SURFACE_STYLE_FILL_AREA(#626);
#626=FILL_AREA_STYLE('',(#627));
#627=FILL_AREA_STYLE_COLOUR('',#628);
#628=COLOUR_RGB('',0.635294117647059,0.635294117647059,0.635294117647059);
ENDSEC;
END-ISO-10303-21;
