ISO-10303-21;
HEADER;
/* Generated by software containing ST-Developer
 * from STEP Tools, Inc. (www.steptools.com) 
 */

FILE_DESCRIPTION(
/* description */ (''),
/* implementation_level */ '2;1');

FILE_NAME(
/* name */ '',
/* time_stamp */ '2023-05-17T11:59:37+03:00',
/* author */ ('\X2\042004420438044904350432\X0\ \X2\0410\X0\.\X2\041E\X0\.'),

/* organization */ (''),
/* preprocessor_version */ 'ST-DEVELOPER v19.2',
/* originating_system */ 'Autodesk Inventor 2023',
/* authorisation */ '');

FILE_SCHEMA (('AUTOMOTIVE_DESIGN { 1 0 10303 214 3 1 1 }'));
ENDSEC;

DATA;
#10=MECHANICAL_DESIGN_GEOMETRIC_PRESENTATION_REPRESENTATION('',(#13),#503);
#11=SHAPE_REPRESENTATION_RELATIONSHIP('SRR','None',#510,#12);
#12=ADVANCED_BREP_SHAPE_REPRESENTATION('',(#14),#502);
#13=STYLED_ITEM('',(#519),#14);
#14=MANIFOLD_SOLID_BREP('\X2\04220432043504400434043E0435\X0\ \X2\04420435043B043E\X0\1',
#298);
#15=CYLINDRICAL_SURFACE('',#337,5.);
#16=CYLINDRICAL_SURFACE('',#339,1.75);
#17=CYLINDRICAL_SURFACE('',#341,1.75);
#18=FACE_BOUND('',#44,.T.);
#19=FACE_BOUND('',#48,.T.);
#20=FACE_BOUND('',#52,.T.);
#21=FACE_BOUND('',#56,.T.);
#22=CIRCLE('',#322,1.75);
#23=CIRCLE('',#323,1.75);
#24=CIRCLE('',#327,1.75);
#25=CIRCLE('',#328,1.75);
#26=CIRCLE('',#332,5.);
#27=CIRCLE('',#336,5.);
#28=FACE_OUTER_BOUND('',#43,.T.);
#29=FACE_OUTER_BOUND('',#45,.T.);
#30=FACE_OUTER_BOUND('',#46,.T.);
#31=FACE_OUTER_BOUND('',#47,.T.);
#32=FACE_OUTER_BOUND('',#49,.T.);
#33=FACE_OUTER_BOUND('',#50,.T.);
#34=FACE_OUTER_BOUND('',#51,.T.);
#35=FACE_OUTER_BOUND('',#53,.T.);
#36=FACE_OUTER_BOUND('',#54,.T.);
#37=FACE_OUTER_BOUND('',#55,.T.);
#38=FACE_OUTER_BOUND('',#57,.T.);
#39=FACE_OUTER_BOUND('',#58,.T.);
#40=FACE_OUTER_BOUND('',#59,.T.);
#41=FACE_OUTER_BOUND('',#60,.T.);
#42=FACE_OUTER_BOUND('',#61,.T.);
#43=EDGE_LOOP('',(#193,#194,#195,#196));
#44=EDGE_LOOP('',(#197,#198,#199,#200));
#45=EDGE_LOOP('',(#201,#202,#203,#204));
#46=EDGE_LOOP('',(#205,#206,#207,#208));
#47=EDGE_LOOP('',(#209,#210,#211,#212));
#48=EDGE_LOOP('',(#213,#214,#215,#216));
#49=EDGE_LOOP('',(#217,#218,#219,#220));
#50=EDGE_LOOP('',(#221,#222,#223,#224,#225,#226,#227,#228));
#51=EDGE_LOOP('',(#229,#230,#231,#232));
#52=EDGE_LOOP('',(#233));
#53=EDGE_LOOP('',(#234,#235,#236,#237));
#54=EDGE_LOOP('',(#238,#239,#240,#241,#242,#243,#244,#245));
#55=EDGE_LOOP('',(#246,#247,#248,#249));
#56=EDGE_LOOP('',(#250));
#57=EDGE_LOOP('',(#251,#252,#253,#254));
#58=EDGE_LOOP('',(#255,#256,#257,#258));
#59=EDGE_LOOP('',(#259,#260,#261,#262));
#60=EDGE_LOOP('',(#263,#264,#265,#266));
#61=EDGE_LOOP('',(#267,#268,#269,#270));
#62=LINE('',#423,#95);
#63=LINE('',#425,#96);
#64=LINE('',#427,#97);
#65=LINE('',#428,#98);
#66=LINE('',#431,#99);
#67=LINE('',#435,#100);
#68=LINE('',#439,#101);
#69=LINE('',#441,#102);
#70=LINE('',#442,#103);
#71=LINE('',#446,#104);
#72=LINE('',#448,#105);
#73=LINE('',#450,#106);
#74=LINE('',#451,#107);
#75=LINE('',#454,#108);
#76=LINE('',#456,#109);
#77=LINE('',#457,#110);
#78=LINE('',#460,#111);
#79=LINE('',#464,#112);
#80=LINE('',#469,#113);
#81=LINE('',#471,#114);
#82=LINE('',#473,#115);
#83=LINE('',#474,#116);
#84=LINE('',#476,#117);
#85=LINE('',#477,#118);
#86=LINE('',#478,#119);
#87=LINE('',#480,#120);
#88=LINE('',#484,#121);
#89=LINE('',#486,#122);
#90=LINE('',#491,#123);
#91=LINE('',#493,#124);
#92=LINE('',#494,#125);
#93=LINE('',#496,#126);
#94=LINE('',#498,#127);
#95=VECTOR('',#346,10.);
#96=VECTOR('',#347,10.);
#97=VECTOR('',#348,10.);
#98=VECTOR('',#349,10.);
#99=VECTOR('',#350,10.);
#100=VECTOR('',#353,10.);
#101=VECTOR('',#358,10.);
#102=VECTOR('',#359,10.);
#103=VECTOR('',#360,10.);
#104=VECTOR('',#363,10.);
#105=VECTOR('',#364,10.);
#106=VECTOR('',#365,10.);
#107=VECTOR('',#366,10.);
#108=VECTOR('',#369,10.);
#109=VECTOR('',#370,10.);
#110=VECTOR('',#371,10.);
#111=VECTOR('',#372,10.);
#112=VECTOR('',#375,10.);
#113=VECTOR('',#380,10.);
#114=VECTOR('',#381,10.);
#115=VECTOR('',#382,10.);
#116=VECTOR('',#383,10.);
#117=VECTOR('',#386,10.);
#118=VECTOR('',#387,10.);
#119=VECTOR('',#388,10.);
#120=VECTOR('',#391,10.);
#121=VECTOR('',#396,10.);
#122=VECTOR('',#399,10.);
#123=VECTOR('',#406,5.);
#124=VECTOR('',#409,10.);
#125=VECTOR('',#410,10.);
#126=VECTOR('',#413,10.);
#127=VECTOR('',#416,10.);
#128=VERTEX_POINT('',#421);
#129=VERTEX_POINT('',#422);
#130=VERTEX_POINT('',#424);
#131=VERTEX_POINT('',#426);
#132=VERTEX_POINT('',#429);
#133=VERTEX_POINT('',#430);
#134=VERTEX_POINT('',#432);
#135=VERTEX_POINT('',#434);
#136=VERTEX_POINT('',#438);
#137=VERTEX_POINT('',#440);
#138=VERTEX_POINT('',#444);
#139=VERTEX_POINT('',#445);
#140=VERTEX_POINT('',#447);
#141=VERTEX_POINT('',#449);
#142=VERTEX_POINT('',#453);
#143=VERTEX_POINT('',#455);
#144=VERTEX_POINT('',#458);
#145=VERTEX_POINT('',#459);
#146=VERTEX_POINT('',#461);
#147=VERTEX_POINT('',#463);
#148=VERTEX_POINT('',#467);
#149=VERTEX_POINT('',#468);
#150=VERTEX_POINT('',#470);
#151=VERTEX_POINT('',#472);
#152=VERTEX_POINT('',#481);
#153=VERTEX_POINT('',#488);
#154=EDGE_CURVE('',#128,#129,#62,.T.);
#155=EDGE_CURVE('',#130,#128,#63,.T.);
#156=EDGE_CURVE('',#130,#131,#64,.T.);
#157=EDGE_CURVE('',#129,#131,#65,.T.);
#158=EDGE_CURVE('',#132,#133,#66,.T.);
#159=EDGE_CURVE('',#133,#134,#22,.T.);
#160=EDGE_CURVE('',#134,#135,#67,.T.);
#161=EDGE_CURVE('',#135,#132,#23,.T.);
#162=EDGE_CURVE('',#131,#136,#68,.T.);
#163=EDGE_CURVE('',#136,#137,#69,.T.);
#164=EDGE_CURVE('',#129,#137,#70,.T.);
#165=EDGE_CURVE('',#138,#139,#71,.T.);
#166=EDGE_CURVE('',#138,#140,#72,.T.);
#167=EDGE_CURVE('',#140,#141,#73,.T.);
#168=EDGE_CURVE('',#141,#139,#74,.T.);
#169=EDGE_CURVE('',#141,#142,#75,.T.);
#170=EDGE_CURVE('',#142,#143,#76,.T.);
#171=EDGE_CURVE('',#139,#143,#77,.T.);
#172=EDGE_CURVE('',#144,#145,#78,.T.);
#173=EDGE_CURVE('',#145,#146,#24,.T.);
#174=EDGE_CURVE('',#146,#147,#79,.T.);
#175=EDGE_CURVE('',#147,#144,#25,.T.);
#176=EDGE_CURVE('',#148,#149,#80,.T.);
#177=EDGE_CURVE('',#148,#150,#81,.T.);
#178=EDGE_CURVE('',#150,#151,#82,.T.);
#179=EDGE_CURVE('',#149,#151,#83,.T.);
#180=EDGE_CURVE('',#137,#149,#84,.T.);
#181=EDGE_CURVE('',#151,#138,#85,.T.);
#182=EDGE_CURVE('',#143,#128,#86,.T.);
#183=EDGE_CURVE('',#150,#140,#87,.T.);
#184=EDGE_CURVE('',#152,#152,#26,.T.);
#185=EDGE_CURVE('',#142,#130,#88,.T.);
#186=EDGE_CURVE('',#136,#148,#89,.T.);
#187=EDGE_CURVE('',#153,#153,#27,.T.);
#188=EDGE_CURVE('',#152,#153,#90,.T.);
#189=EDGE_CURVE('',#146,#135,#91,.T.);
#190=EDGE_CURVE('',#147,#134,#92,.T.);
#191=EDGE_CURVE('',#144,#133,#93,.T.);
#192=EDGE_CURVE('',#145,#132,#94,.T.);
#193=ORIENTED_EDGE('',*,*,#154,.F.);
#194=ORIENTED_EDGE('',*,*,#155,.F.);
#195=ORIENTED_EDGE('',*,*,#156,.T.);
#196=ORIENTED_EDGE('',*,*,#157,.F.);
#197=ORIENTED_EDGE('',*,*,#158,.T.);
#198=ORIENTED_EDGE('',*,*,#159,.T.);
#199=ORIENTED_EDGE('',*,*,#160,.T.);
#200=ORIENTED_EDGE('',*,*,#161,.T.);
#201=ORIENTED_EDGE('',*,*,#157,.T.);
#202=ORIENTED_EDGE('',*,*,#162,.T.);
#203=ORIENTED_EDGE('',*,*,#163,.T.);
#204=ORIENTED_EDGE('',*,*,#164,.F.);
#205=ORIENTED_EDGE('',*,*,#165,.F.);
#206=ORIENTED_EDGE('',*,*,#166,.T.);
#207=ORIENTED_EDGE('',*,*,#167,.T.);
#208=ORIENTED_EDGE('',*,*,#168,.T.);
#209=ORIENTED_EDGE('',*,*,#168,.F.);
#210=ORIENTED_EDGE('',*,*,#169,.T.);
#211=ORIENTED_EDGE('',*,*,#170,.T.);
#212=ORIENTED_EDGE('',*,*,#171,.F.);
#213=ORIENTED_EDGE('',*,*,#172,.T.);
#214=ORIENTED_EDGE('',*,*,#173,.T.);
#215=ORIENTED_EDGE('',*,*,#174,.T.);
#216=ORIENTED_EDGE('',*,*,#175,.T.);
#217=ORIENTED_EDGE('',*,*,#176,.F.);
#218=ORIENTED_EDGE('',*,*,#177,.T.);
#219=ORIENTED_EDGE('',*,*,#178,.T.);
#220=ORIENTED_EDGE('',*,*,#179,.F.);
#221=ORIENTED_EDGE('',*,*,#154,.T.);
#222=ORIENTED_EDGE('',*,*,#164,.T.);
#223=ORIENTED_EDGE('',*,*,#180,.T.);
#224=ORIENTED_EDGE('',*,*,#179,.T.);
#225=ORIENTED_EDGE('',*,*,#181,.T.);
#226=ORIENTED_EDGE('',*,*,#165,.T.);
#227=ORIENTED_EDGE('',*,*,#171,.T.);
#228=ORIENTED_EDGE('',*,*,#182,.T.);
#229=ORIENTED_EDGE('',*,*,#178,.F.);
#230=ORIENTED_EDGE('',*,*,#183,.T.);
#231=ORIENTED_EDGE('',*,*,#166,.F.);
#232=ORIENTED_EDGE('',*,*,#181,.F.);
#233=ORIENTED_EDGE('',*,*,#184,.T.);
#234=ORIENTED_EDGE('',*,*,#170,.F.);
#235=ORIENTED_EDGE('',*,*,#185,.T.);
#236=ORIENTED_EDGE('',*,*,#155,.T.);
#237=ORIENTED_EDGE('',*,*,#182,.F.);
#238=ORIENTED_EDGE('',*,*,#156,.F.);
#239=ORIENTED_EDGE('',*,*,#185,.F.);
#240=ORIENTED_EDGE('',*,*,#169,.F.);
#241=ORIENTED_EDGE('',*,*,#167,.F.);
#242=ORIENTED_EDGE('',*,*,#183,.F.);
#243=ORIENTED_EDGE('',*,*,#177,.F.);
#244=ORIENTED_EDGE('',*,*,#186,.F.);
#245=ORIENTED_EDGE('',*,*,#162,.F.);
#246=ORIENTED_EDGE('',*,*,#176,.T.);
#247=ORIENTED_EDGE('',*,*,#180,.F.);
#248=ORIENTED_EDGE('',*,*,#163,.F.);
#249=ORIENTED_EDGE('',*,*,#186,.T.);
#250=ORIENTED_EDGE('',*,*,#187,.T.);
#251=ORIENTED_EDGE('',*,*,#184,.F.);
#252=ORIENTED_EDGE('',*,*,#188,.T.);
#253=ORIENTED_EDGE('',*,*,#187,.F.);
#254=ORIENTED_EDGE('',*,*,#188,.F.);
#255=ORIENTED_EDGE('',*,*,#174,.F.);
#256=ORIENTED_EDGE('',*,*,#189,.T.);
#257=ORIENTED_EDGE('',*,*,#160,.F.);
#258=ORIENTED_EDGE('',*,*,#190,.F.);
#259=ORIENTED_EDGE('',*,*,#175,.F.);
#260=ORIENTED_EDGE('',*,*,#190,.T.);
#261=ORIENTED_EDGE('',*,*,#159,.F.);
#262=ORIENTED_EDGE('',*,*,#191,.F.);
#263=ORIENTED_EDGE('',*,*,#172,.F.);
#264=ORIENTED_EDGE('',*,*,#191,.T.);
#265=ORIENTED_EDGE('',*,*,#158,.F.);
#266=ORIENTED_EDGE('',*,*,#192,.F.);
#267=ORIENTED_EDGE('',*,*,#173,.F.);
#268=ORIENTED_EDGE('',*,*,#192,.T.);
#269=ORIENTED_EDGE('',*,*,#161,.F.);
#270=ORIENTED_EDGE('',*,*,#189,.F.);
#271=PLANE('',#321);
#272=PLANE('',#324);
#273=PLANE('',#325);
#274=PLANE('',#326);
#275=PLANE('',#329);
#276=PLANE('',#330);
#277=PLANE('',#331);
#278=PLANE('',#333);
#279=PLANE('',#334);
#280=PLANE('',#335);
#281=PLANE('',#338);
#282=PLANE('',#340);
#283=ADVANCED_FACE('',(#28,#18),#271,.T.);
#284=ADVANCED_FACE('',(#29),#272,.T.);
#285=ADVANCED_FACE('',(#30),#273,.T.);
#286=ADVANCED_FACE('',(#31,#19),#274,.T.);
#287=ADVANCED_FACE('',(#32),#275,.T.);
#288=ADVANCED_FACE('',(#33),#276,.T.);
#289=ADVANCED_FACE('',(#34,#20),#277,.T.);
#290=ADVANCED_FACE('',(#35),#278,.T.);
#291=ADVANCED_FACE('',(#36),#279,.F.);
#292=ADVANCED_FACE('',(#37,#21),#280,.T.);
#293=ADVANCED_FACE('',(#38),#15,.F.);
#294=ADVANCED_FACE('',(#39),#281,.F.);
#295=ADVANCED_FACE('',(#40),#16,.F.);
#296=ADVANCED_FACE('',(#41),#282,.F.);
#297=ADVANCED_FACE('',(#42),#17,.F.);
#298=CLOSED_SHELL('',(#283,#284,#285,#286,#287,#288,#289,#290,#291,#292,
#293,#294,#295,#296,#297));
#299=DERIVED_UNIT_ELEMENT(#302,1.);
#300=DERIVED_UNIT_ELEMENT(#505,-3.);
#301=DIMENSIONAL_EXPONENTS(0.,1.,0.,0.,0.,0.,0.);
#302=(
CONVERSION_BASED_UNIT('gram',#304)
MASS_UNIT()
NAMED_UNIT(#301)
);
#303=(
MASS_UNIT()
NAMED_UNIT(*)
SI_UNIT(.KILO.,.GRAM.)
);
#304=MASS_MEASURE_WITH_UNIT(MASS_MEASURE(0.001),#303);
#305=DERIVED_UNIT((#299,#300));
#306=MEASURE_REPRESENTATION_ITEM('density measure',
POSITIVE_RATIO_MEASURE(1.),#305);
#307=PROPERTY_DEFINITION_REPRESENTATION(#312,#309);
#308=PROPERTY_DEFINITION_REPRESENTATION(#313,#310);
#309=REPRESENTATION('material name',(#311),#502);
#310=REPRESENTATION('density',(#306),#502);
#311=DESCRIPTIVE_REPRESENTATION_ITEM('\X2\04220438043F043E0432044B0435\X0\',
'\X2\04220438043F043E0432044B0435\X0\');
#312=PROPERTY_DEFINITION('material property','material name',#512);
#313=PROPERTY_DEFINITION('material property','density of part',#512);
#314=DATE_TIME_ROLE('creation_date');
#315=APPLIED_DATE_AND_TIME_ASSIGNMENT(#316,#314,(#512));
#316=DATE_AND_TIME(#317,#318);
#317=CALENDAR_DATE(2020,28,7);
#318=LOCAL_TIME(0,0,0.,#319);
#319=COORDINATED_UNIVERSAL_TIME_OFFSET(0,0,.BEHIND.);
#320=AXIS2_PLACEMENT_3D('',#419,#342,#343);
#321=AXIS2_PLACEMENT_3D('',#420,#344,#345);
#322=AXIS2_PLACEMENT_3D('',#433,#351,#352);
#323=AXIS2_PLACEMENT_3D('',#436,#354,#355);
#324=AXIS2_PLACEMENT_3D('',#437,#356,#357);
#325=AXIS2_PLACEMENT_3D('',#443,#361,#362);
#326=AXIS2_PLACEMENT_3D('',#452,#367,#368);
#327=AXIS2_PLACEMENT_3D('',#462,#373,#374);
#328=AXIS2_PLACEMENT_3D('',#465,#376,#377);
#329=AXIS2_PLACEMENT_3D('',#466,#378,#379);
#330=AXIS2_PLACEMENT_3D('',#475,#384,#385);
#331=AXIS2_PLACEMENT_3D('',#479,#389,#390);
#332=AXIS2_PLACEMENT_3D('',#482,#392,#393);
#333=AXIS2_PLACEMENT_3D('',#483,#394,#395);
#334=AXIS2_PLACEMENT_3D('',#485,#397,#398);
#335=AXIS2_PLACEMENT_3D('',#487,#400,#401);
#336=AXIS2_PLACEMENT_3D('',#489,#402,#403);
#337=AXIS2_PLACEMENT_3D('',#490,#404,#405);
#338=AXIS2_PLACEMENT_3D('',#492,#407,#408);
#339=AXIS2_PLACEMENT_3D('',#495,#411,#412);
#340=AXIS2_PLACEMENT_3D('',#497,#414,#415);
#341=AXIS2_PLACEMENT_3D('',#499,#417,#418);
#342=DIRECTION('axis',(0.,0.,1.));
#343=DIRECTION('refdir',(1.,0.,0.));
#344=DIRECTION('center_axis',(0.,-1.,-1.41241268735417E-16));
#345=DIRECTION('ref_axis',(0.,1.41241268735417E-16,-1.));
#346=DIRECTION('',(0.,1.41241268735417E-16,-1.));
#347=DIRECTION('',(1.,0.,0.));
#348=DIRECTION('',(0.,1.41241268735417E-16,-1.));
#349=DIRECTION('',(-1.,0.,0.));
#350=DIRECTION('',(-0.707106781186548,9.98726589062047E-17,-0.707106781186547));
#351=DIRECTION('center_axis',(0.,1.,1.41241268735417E-16));
#352=DIRECTION('ref_axis',(0.707106781186548,9.73700749571331E-17,-0.707106781186547));
#353=DIRECTION('',(0.707106781186548,-9.98726589062047E-17,0.707106781186547));
#354=DIRECTION('center_axis',(0.,1.,1.41241268735417E-16));
#355=DIRECTION('ref_axis',(-0.707106781186546,-9.73700749571333E-17,0.707106781186549));
#356=DIRECTION('center_axis',(0.,-0.5,-0.866025403784439));
#357=DIRECTION('ref_axis',(0.,0.866025403784439,-0.5));
#358=DIRECTION('',(0.,0.866025403784439,-0.5));
#359=DIRECTION('',(1.,0.,0.));
#360=DIRECTION('',(0.,0.866025403784439,-0.5));
#361=DIRECTION('center_axis',(0.,0.499999999999814,0.866025403784546));
#362=DIRECTION('ref_axis',(0.,-0.866025403784546,0.499999999999814));
#363=DIRECTION('',(0.,-0.866025403784546,0.499999999999814));
#364=DIRECTION('',(-1.,0.,0.));
#365=DIRECTION('',(0.,-0.866025403784546,0.499999999999814));
#366=DIRECTION('',(1.,0.,0.));
#367=DIRECTION('center_axis',(0.,1.,7.06206343677544E-17));
#368=DIRECTION('ref_axis',(0.,-7.06206343677544E-17,1.));
#369=DIRECTION('',(0.,-7.06206343677544E-17,1.));
#370=DIRECTION('',(1.,0.,0.));
#371=DIRECTION('',(0.,-7.06206343677544E-17,1.));
#372=DIRECTION('',(0.707106781186548,-4.99363294531349E-17,0.707106781186547));
#373=DIRECTION('center_axis',(0.,-1.,-7.06206343677544E-17));
#374=DIRECTION('ref_axis',(-0.707106781186546,-9.73700749571333E-17,0.707106781186549));
#375=DIRECTION('',(-0.707106781186548,4.99363294531349E-17,-0.707106781186547));
#376=DIRECTION('center_axis',(0.,-1.,-7.06206343677544E-17));
#377=DIRECTION('ref_axis',(0.707106781186548,9.73700749571331E-17,-0.707106781186547));
#378=DIRECTION('center_axis',(0.,0.,-1.));
#379=DIRECTION('ref_axis',(0.,1.,0.));
#380=DIRECTION('',(1.,0.,0.));
#381=DIRECTION('',(0.,1.,0.));
#382=DIRECTION('',(1.,0.,0.));
#383=DIRECTION('',(0.,1.,0.));
#384=DIRECTION('center_axis',(1.,0.,0.));
#385=DIRECTION('ref_axis',(0.,0.,-1.));
#386=DIRECTION('',(0.,1.26640251720177E-16,-1.));
#387=DIRECTION('',(0.,-1.26640251720121E-16,1.));
#388=DIRECTION('',(0.,-1.,-1.41241268735417E-16));
#389=DIRECTION('center_axis',(0.,1.,1.26640251720121E-16));
#390=DIRECTION('ref_axis',(0.,-1.26640251720121E-16,1.));
#391=DIRECTION('',(0.,-1.26640251720121E-16,1.));
#392=DIRECTION('center_axis',(0.,-1.,-1.26640251720121E-16));
#393=DIRECTION('ref_axis',(1.,0.,0.));
#394=DIRECTION('center_axis',(0.,-1.41241268735417E-16,1.));
#395=DIRECTION('ref_axis',(0.,-1.,-1.41241268735417E-16));
#396=DIRECTION('',(0.,-1.,-1.41241268735417E-16));
#397=DIRECTION('center_axis',(1.,0.,0.));
#398=DIRECTION('ref_axis',(0.,0.,-1.));
#399=DIRECTION('',(0.,1.26640251720177E-16,-1.));
#400=DIRECTION('center_axis',(0.,-1.,-1.26640251720177E-16));
#401=DIRECTION('ref_axis',(0.,1.26640251720177E-16,-1.));
#402=DIRECTION('center_axis',(0.,1.,1.26640251720177E-16));
#403=DIRECTION('ref_axis',(1.,0.,0.));
#404=DIRECTION('center_axis',(0.,-1.,0.));
#405=DIRECTION('ref_axis',(1.,0.,0.));
#406=DIRECTION('',(0.,-1.,0.));
#407=DIRECTION('center_axis',(-0.707106781186547,-9.73700749571332E-17,
0.707106781186548));
#408=DIRECTION('ref_axis',(-0.707106781186548,8.95481807624687E-17,-0.707106781186547));
#409=DIRECTION('',(0.,-1.,-1.37702080573663E-16));
#410=DIRECTION('',(0.,-1.,-1.37702080573663E-16));
#411=DIRECTION('center_axis',(0.,-1.,-1.37702080573663E-16));
#412=DIRECTION('ref_axis',(0.707106781186548,9.73700749571331E-17,-0.707106781186547));
#413=DIRECTION('',(0.,-1.,-1.37702080573663E-16));
#414=DIRECTION('center_axis',(0.707106781186547,9.73700749571332E-17,-0.707106781186548));
#415=DIRECTION('ref_axis',(0.707106781186548,-8.95481807624686E-17,0.707106781186547));
#416=DIRECTION('',(0.,-1.,-1.37702080573663E-16));
#417=DIRECTION('center_axis',(0.,-1.,-1.37702080573663E-16));
#418=DIRECTION('ref_axis',(-0.707106781186546,-9.73700749571333E-17,0.707106781186549));
#419=CARTESIAN_POINT('',(0.,0.,0.));
#420=CARTESIAN_POINT('Origin',(0.,0.,0.));
#421=CARTESIAN_POINT('',(20.,-4.00725289019904E-16,0.));
#422=CARTESIAN_POINT('',(20.,4.44089209850063E-15,-34.905989232415));
#423=CARTESIAN_POINT('',(20.,0.,0.));
#424=CARTESIAN_POINT('',(0.,-8.70466524290509E-48,6.16297582203915E-32));
#425=CARTESIAN_POINT('',(0.,0.,0.));
#426=CARTESIAN_POINT('',(0.,4.44089209850063E-15,-34.905989232415));
#427=CARTESIAN_POINT('',(0.,0.,0.));
#428=CARTESIAN_POINT('',(0.,6.66133814775094E-15,-34.905989232415));
#429=CARTESIAN_POINT('',(14.9497474683058,8.88178419700125E-15,-7.52512626584708));
#430=CARTESIAN_POINT('',(7.52512626584708,8.88178419700125E-15,-14.9497474683058));
#431=CARTESIAN_POINT('',(9.38128156646176,4.44089209850063E-15,-13.0935921676911));
#432=CARTESIAN_POINT('',(5.05025253169416,8.88178419700125E-15,-12.4748737341529));
#433=CARTESIAN_POINT('Origin',(6.28768939877062,0.,-13.7123106012294));
#434=CARTESIAN_POINT('',(12.4748737341529,8.88178419700125E-15,-5.05025253169416));
#435=CARTESIAN_POINT('',(10.6187184335382,-4.44089209850063E-15,-6.90640783230886));
#436=CARTESIAN_POINT('Origin',(13.7123106012294,0.,-6.28768939877062));
#437=CARTESIAN_POINT('Origin',(0.,3.00000000000001,-36.6380400399838));
#438=CARTESIAN_POINT('',(0.,40.,-58.));
#439=CARTESIAN_POINT('',(0.,3.00000000000001,-36.6380400399838));
#440=CARTESIAN_POINT('',(20.,40.,-58.));
#441=CARTESIAN_POINT('',(0.,40.,-58.));
#442=CARTESIAN_POINT('',(20.,3.00000000000001,-36.6380400399838));
#443=CARTESIAN_POINT('Origin',(0.,39.9999999998545,-54.5358983847109));
#444=CARTESIAN_POINT('',(20.,43.,-56.2679491923629));
#445=CARTESIAN_POINT('',(20.,3.,-33.1739384247893));
#446=CARTESIAN_POINT('',(20.,39.9999999998545,-54.5358983847109));
#447=CARTESIAN_POINT('',(0.,43.,-56.2679491923629));
#448=CARTESIAN_POINT('',(0.,43.,-56.2679491923629));
#449=CARTESIAN_POINT('',(0.,3.,-33.1739384247893));
#450=CARTESIAN_POINT('',(0.,39.9999999998545,-54.5358983847109));
#451=CARTESIAN_POINT('',(0.,3.,-33.1739384247893));
#452=CARTESIAN_POINT('Origin',(0.,3.,-31.4418876172567));
#453=CARTESIAN_POINT('',(0.,3.,1.56809308577329E-31));
#454=CARTESIAN_POINT('',(0.,3.,-31.4418876172567));
#455=CARTESIAN_POINT('',(20.,3.,0.));
#456=CARTESIAN_POINT('',(0.,3.,4.23723806206251E-16));
#457=CARTESIAN_POINT('',(20.,3.,-31.4418876172567));
#458=CARTESIAN_POINT('',(7.52512626584708,3.,-14.9497474683058));
#459=CARTESIAN_POINT('',(14.9497474683058,3.,-7.52512626584708));
#460=CARTESIAN_POINT('',(1.52080966214758,3.,-20.9540640720053));
#461=CARTESIAN_POINT('',(12.4748737341529,3.,-5.05025253169416));
#462=CARTESIAN_POINT('Origin',(13.7123106012294,3.,-6.28768939877062));
#463=CARTESIAN_POINT('',(5.05025253169416,3.,-12.4748737341529));
#464=CARTESIAN_POINT('',(2.75824652922405,3.,-14.766879736623));
#465=CARTESIAN_POINT('Origin',(6.28768939877062,3.,-13.7123106012294));
#466=CARTESIAN_POINT('Origin',(0.,40.,-200.));
#467=CARTESIAN_POINT('',(0.,40.,-200.));
#468=CARTESIAN_POINT('',(20.,40.,-200.));
#469=CARTESIAN_POINT('',(0.,40.,-200.));
#470=CARTESIAN_POINT('',(0.,43.,-200.));
#471=CARTESIAN_POINT('',(0.,30.75,-200.));
#472=CARTESIAN_POINT('',(20.,43.,-200.));
#473=CARTESIAN_POINT('',(0.,43.,-200.));
#474=CARTESIAN_POINT('',(20.,30.75,-200.));
#475=CARTESIAN_POINT('Origin',(20.,21.5,-100.));
#476=CARTESIAN_POINT('',(20.,40.,-59.7320508075689));
#477=CARTESIAN_POINT('',(20.,43.,-200.));
#478=CARTESIAN_POINT('',(20.,12.25,0.));
#479=CARTESIAN_POINT('Origin',(0.,43.,-200.));
#480=CARTESIAN_POINT('',(0.,43.,-200.));
#481=CARTESIAN_POINT('',(5.,43.,-187.669041836144));
#482=CARTESIAN_POINT('Origin',(10.,43.,-187.669041836144));
#483=CARTESIAN_POINT('Origin',(0.,3.,4.23723806206251E-16));
#484=CARTESIAN_POINT('',(0.,12.25,0.));
#485=CARTESIAN_POINT('Origin',(0.,21.5,-100.));
#486=CARTESIAN_POINT('',(0.,40.,-59.7320508075689));
#487=CARTESIAN_POINT('Origin',(0.,40.,-59.7320508075689));
#488=CARTESIAN_POINT('',(5.,40.,-187.669041836144));
#489=CARTESIAN_POINT('Origin',(10.,40.,-187.669041836144));
#490=CARTESIAN_POINT('Origin',(10.,43.,-187.669041836144));
#491=CARTESIAN_POINT('',(5.,43.,-187.669041836144));
#492=CARTESIAN_POINT('Origin',(12.4748737341529,43.,-5.05025253169416));
#493=CARTESIAN_POINT('',(12.4748737341529,43.,-5.05025253169416));
#494=CARTESIAN_POINT('',(5.05025253169416,43.,-12.4748737341529));
#495=CARTESIAN_POINT('Origin',(6.28768939877062,43.,-13.7123106012294));
#496=CARTESIAN_POINT('',(7.52512626584708,43.,-14.9497474683058));
#497=CARTESIAN_POINT('Origin',(7.52512626584708,43.,-14.9497474683058));
#498=CARTESIAN_POINT('',(14.9497474683058,43.,-7.52512626584708));
#499=CARTESIAN_POINT('Origin',(13.7123106012294,43.,-6.28768939877062));
#500=UNCERTAINTY_MEASURE_WITH_UNIT(LENGTH_MEASURE(0.01),#504,
'DISTANCE_ACCURACY_VALUE',
'Maximum model space distance between geometric entities at asserted c
onnectivities');
#501=UNCERTAINTY_MEASURE_WITH_UNIT(LENGTH_MEASURE(0.01),#504,
'DISTANCE_ACCURACY_VALUE',
'Maximum model space distance between geometric entities at asserted c
onnectivities');
#502=(
GEOMETRIC_REPRESENTATION_CONTEXT(3)
GLOBAL_UNCERTAINTY_ASSIGNED_CONTEXT((#500))
GLOBAL_UNIT_ASSIGNED_CONTEXT((#504,#506,#507))
REPRESENTATION_CONTEXT('','3D')
);
#503=(
GEOMETRIC_REPRESENTATION_CONTEXT(3)
GLOBAL_UNCERTAINTY_ASSIGNED_CONTEXT((#501))
GLOBAL_UNIT_ASSIGNED_CONTEXT((#504,#506,#507))
REPRESENTATION_CONTEXT('','3D')
);
#504=(
LENGTH_UNIT()
NAMED_UNIT(*)
SI_UNIT(.MILLI.,.METRE.)
);
#505=(
LENGTH_UNIT()
NAMED_UNIT(*)
SI_UNIT(.CENTI.,.METRE.)
);
#506=(
NAMED_UNIT(*)
PLANE_ANGLE_UNIT()
SI_UNIT($,.RADIAN.)
);
#507=(
NAMED_UNIT(*)
SI_UNIT($,.STERADIAN.)
SOLID_ANGLE_UNIT()
);
#508=SHAPE_DEFINITION_REPRESENTATION(#509,#510);
#509=PRODUCT_DEFINITION_SHAPE('',$,#512);
#510=SHAPE_REPRESENTATION('',(#320),#502);
#511=PRODUCT_DEFINITION_CONTEXT('part definition',#516,'design');
#512=PRODUCT_DEFINITION('\X2\041A\X0\1156 \X2\043A043B044E0447\X0\',
'\X2\041A\X0\1156 \X2\043A043B044E0447\X0\',#513,#511);
#513=PRODUCT_DEFINITION_FORMATION('',$,#518);
#514=PRODUCT_RELATED_PRODUCT_CATEGORY('\X2\041A\X0\1156 \X2\043A043B044E0447\X0\',
'\X2\041A\X0\1156 \X2\043A043B044E0447\X0\',(#518));
#515=APPLICATION_PROTOCOL_DEFINITION('international standard',
'automotive_design',2009,#516);
#516=APPLICATION_CONTEXT(
'Core Data for Automotive Mechanical Design Process');
#517=PRODUCT_CONTEXT('part definition',#516,'mechanical');
#518=PRODUCT('\X2\041A\X0\1156 \X2\043A043B044E0447\X0\',
'\X2\041A\X0\1156 \X2\043A043B044E0447\X0\',$,(#517));
#519=PRESENTATION_STYLE_ASSIGNMENT((#520));
#520=SURFACE_STYLE_USAGE(.BOTH.,#523);
#521=SURFACE_STYLE_RENDERING_WITH_PROPERTIES($,#527,(#522));
#522=SURFACE_STYLE_TRANSPARENT(0.);
#523=SURFACE_SIDE_STYLE('',(#524,#521));
#524=SURFACE_STYLE_FILL_AREA(#525);
#525=FILL_AREA_STYLE('',(#526));
#526=FILL_AREA_STYLE_COLOUR('',#527);
#527=COLOUR_RGB('',0.749019607843137,0.749019607843137,0.749019607843137);
ENDSEC;
END-ISO-10303-21;
