ISO-10303-21;
HEADER;
/* Generated by software containing ST-Developer
 * from STEP Tools, Inc. (www.steptools.com) 
 */

FILE_DESCRIPTION(
/* description */ (''),
/* implementation_level */ '2;1');

FILE_NAME(
/* name */ '505040 NUR.ipt.stp',
/* time_stamp */ '2023-05-19T14:07:11+03:00',
/* author */ ('Man49'),
/* organization */ (''),
/* preprocessor_version */ 'ST-DEVELOPER v19.2',
/* originating_system */ 'Autodesk Inventor 2023',
/* authorisation */ '');

FILE_SCHEMA (('AUTOMOTIVE_DESIGN { 1 0 10303 214 3 1 1 }'));
ENDSEC;

DATA;
#10=MECHANICAL_DESIGN_GEOMETRIC_PRESENTATION_REPRESENTATION('',(#88,#89,
#90,#91,#92,#93,#94),#195);
#11=SHAPE_REPRESENTATION_RELATIONSHIP('SRR','None',#202,#12);
#12=ADVANCED_BREP_SHAPE_REPRESENTATION('',(#13),#194);
#13=MANIFOLD_SOLID_BREP('\X2\04220432043504400434043E0435\X0\ \X2\04420435043B043E\X0\1',
#101);
#14=PLANE('',#130);
#15=CYLINDRICAL_SURFACE('',#128,8.);
#16=FACE_OUTER_BOUND('',#22,.T.);
#17=FACE_OUTER_BOUND('',#23,.T.);
#18=FACE_OUTER_BOUND('',#24,.T.);
#19=FACE_OUTER_BOUND('',#25,.T.);
#20=FACE_OUTER_BOUND('',#26,.T.);
#21=FACE_OUTER_BOUND('',#27,.T.);
#22=EDGE_LOOP('',(#62,#63,#64,#65,#66));
#23=EDGE_LOOP('',(#67,#68,#69,#70,#71));
#24=EDGE_LOOP('',(#72));
#25=EDGE_LOOP('',(#73,#74,#75));
#26=EDGE_LOOP('',(#76,#77,#78,#79));
#27=EDGE_LOOP('',(#80,#81,#82,#83));
#28=LINE('',#172,#33);
#29=LINE('',#178,#34);
#30=LINE('',#185,#35);
#31=LINE('',#189,#36);
#32=LINE('',#191,#37);
#33=VECTOR('',#142,7.5);
#34=VECTOR('',#149,8.);
#35=VECTOR('',#158,2.25);
#36=VECTOR('',#163,5.);
#37=VECTOR('',#166,6.75);
#38=CIRCLE('',#125,7.);
#39=CIRCLE('',#126,8.);
#40=CIRCLE('',#127,8.);
#41=CIRCLE('',#129,8.);
#42=CIRCLE('',#132,4.5);
#43=CIRCLE('',#134,5.5);
#44=VERTEX_POINT('',#169);
#45=VERTEX_POINT('',#171);
#46=VERTEX_POINT('',#173);
#47=VERTEX_POINT('',#177);
#48=VERTEX_POINT('',#182);
#49=VERTEX_POINT('',#184);
#50=VERTEX_POINT('',#187);
#51=EDGE_CURVE('',#44,#44,#38,.T.);
#52=EDGE_CURVE('',#44,#45,#28,.T.);
#53=EDGE_CURVE('',#45,#46,#39,.T.);
#54=EDGE_CURVE('',#46,#45,#40,.T.);
#55=EDGE_CURVE('',#46,#47,#29,.T.);
#56=EDGE_CURVE('',#47,#47,#41,.T.);
#57=EDGE_CURVE('',#48,#48,#42,.T.);
#58=EDGE_CURVE('',#48,#49,#30,.T.);
#59=EDGE_CURVE('',#50,#50,#43,.T.);
#60=EDGE_CURVE('',#50,#48,#31,.T.);
#61=EDGE_CURVE('',#47,#50,#32,.T.);
#62=ORIENTED_EDGE('',*,*,#51,.T.);
#63=ORIENTED_EDGE('',*,*,#52,.T.);
#64=ORIENTED_EDGE('',*,*,#53,.T.);
#65=ORIENTED_EDGE('',*,*,#54,.T.);
#66=ORIENTED_EDGE('',*,*,#52,.F.);
#67=ORIENTED_EDGE('',*,*,#53,.F.);
#68=ORIENTED_EDGE('',*,*,#54,.F.);
#69=ORIENTED_EDGE('',*,*,#55,.T.);
#70=ORIENTED_EDGE('',*,*,#56,.T.);
#71=ORIENTED_EDGE('',*,*,#55,.F.);
#72=ORIENTED_EDGE('',*,*,#51,.F.);
#73=ORIENTED_EDGE('',*,*,#57,.F.);
#74=ORIENTED_EDGE('',*,*,#58,.T.);
#75=ORIENTED_EDGE('',*,*,#58,.F.);
#76=ORIENTED_EDGE('',*,*,#59,.F.);
#77=ORIENTED_EDGE('',*,*,#60,.T.);
#78=ORIENTED_EDGE('',*,*,#57,.T.);
#79=ORIENTED_EDGE('',*,*,#60,.F.);
#80=ORIENTED_EDGE('',*,*,#56,.F.);
#81=ORIENTED_EDGE('',*,*,#61,.T.);
#82=ORIENTED_EDGE('',*,*,#59,.T.);
#83=ORIENTED_EDGE('',*,*,#61,.F.);
#84=CONICAL_SURFACE('',#124,7.5,0.785398163397441);
#85=CONICAL_SURFACE('',#131,2.25,0.982793723247329);
#86=CONICAL_SURFACE('',#133,5.,0.0333209958782472);
#87=CONICAL_SURFACE('',#135,6.75,1.19028994968253);
#88=STYLED_ITEM('',(#211),#95);
#89=STYLED_ITEM('',(#211),#96);
#90=STYLED_ITEM('',(#211),#97);
#91=STYLED_ITEM('',(#211),#98);
#92=STYLED_ITEM('',(#211),#99);
#93=STYLED_ITEM('',(#211),#100);
#94=STYLED_ITEM('',(#211),#13);
#95=ADVANCED_FACE('',(#16),#84,.T.);
#96=ADVANCED_FACE('',(#17),#15,.T.);
#97=ADVANCED_FACE('',(#18),#14,.T.);
#98=ADVANCED_FACE('',(#19),#85,.T.);
#99=ADVANCED_FACE('',(#20),#86,.T.);
#100=ADVANCED_FACE('',(#21),#87,.T.);
#101=CLOSED_SHELL('',(#95,#96,#97,#98,#99,#100));
#102=DERIVED_UNIT_ELEMENT(#105,1.);
#103=DERIVED_UNIT_ELEMENT(#197,-3.);
#104=DIMENSIONAL_EXPONENTS(0.,1.,0.,0.,0.,0.,0.);
#105=(
CONVERSION_BASED_UNIT('gram',#107)
MASS_UNIT()
NAMED_UNIT(#104)
);
#106=(
MASS_UNIT()
NAMED_UNIT(*)
SI_UNIT(.KILO.,.GRAM.)
);
#107=MASS_MEASURE_WITH_UNIT(MASS_MEASURE(0.001),#106);
#108=DERIVED_UNIT((#102,#103));
#109=MEASURE_REPRESENTATION_ITEM('density measure',
POSITIVE_RATIO_MEASURE(1.),#108);
#110=PROPERTY_DEFINITION_REPRESENTATION(#115,#112);
#111=PROPERTY_DEFINITION_REPRESENTATION(#116,#113);
#112=REPRESENTATION('material name',(#114),#194);
#113=REPRESENTATION('density',(#109),#194);
#114=DESCRIPTIVE_REPRESENTATION_ITEM('\X2\04220438043F043E0432044B0435\X0\',
'\X2\04220438043F043E0432044B0435\X0\');
#115=PROPERTY_DEFINITION('material property','material name',#204);
#116=PROPERTY_DEFINITION('material property','density of part',#204);
#117=DATE_TIME_ROLE('creation_date');
#118=APPLIED_DATE_AND_TIME_ASSIGNMENT(#119,#117,(#204));
#119=DATE_AND_TIME(#120,#121);
#120=CALENDAR_DATE(2022,3,3);
#121=LOCAL_TIME(0,0,0.,#122);
#122=COORDINATED_UNIVERSAL_TIME_OFFSET(0,0,.BEHIND.);
#123=AXIS2_PLACEMENT_3D('',#167,#136,#137);
#124=AXIS2_PLACEMENT_3D('',#168,#138,#139);
#125=AXIS2_PLACEMENT_3D('',#170,#140,#141);
#126=AXIS2_PLACEMENT_3D('',#174,#143,#144);
#127=AXIS2_PLACEMENT_3D('',#175,#145,#146);
#128=AXIS2_PLACEMENT_3D('',#176,#147,#148);
#129=AXIS2_PLACEMENT_3D('',#179,#150,#151);
#130=AXIS2_PLACEMENT_3D('',#180,#152,#153);
#131=AXIS2_PLACEMENT_3D('',#181,#154,#155);
#132=AXIS2_PLACEMENT_3D('',#183,#156,#157);
#133=AXIS2_PLACEMENT_3D('',#186,#159,#160);
#134=AXIS2_PLACEMENT_3D('',#188,#161,#162);
#135=AXIS2_PLACEMENT_3D('',#190,#164,#165);
#136=DIRECTION('axis',(0.,0.,1.));
#137=DIRECTION('refdir',(1.,0.,0.));
#138=DIRECTION('center_axis',(-1.,0.,0.));
#139=DIRECTION('ref_axis',(0.,-1.,0.));
#140=DIRECTION('center_axis',(-1.,0.,0.));
#141=DIRECTION('ref_axis',(0.,-1.,0.));
#142=DIRECTION('',(-0.707106781186553,0.707106781186542,8.65956056235487E-17));
#143=DIRECTION('center_axis',(1.,0.,0.));
#144=DIRECTION('ref_axis',(0.,-1.,0.));
#145=DIRECTION('center_axis',(1.,0.,0.));
#146=DIRECTION('ref_axis',(0.,-1.,0.));
#147=DIRECTION('center_axis',(1.,0.,0.));
#148=DIRECTION('ref_axis',(0.,1.,0.));
#149=DIRECTION('',(-1.,0.,0.));
#150=DIRECTION('center_axis',(1.,0.,0.));
#151=DIRECTION('ref_axis',(0.,0.,-1.));
#152=DIRECTION('center_axis',(1.,0.,0.));
#153=DIRECTION('ref_axis',(0.,0.,-1.));
#154=DIRECTION('center_axis',(1.,0.,0.));
#155=DIRECTION('ref_axis',(0.,1.,0.));
#156=DIRECTION('center_axis',(1.,0.,0.));
#157=DIRECTION('ref_axis',(0.,0.,-1.));
#158=DIRECTION('',(-0.554700196225229,0.832050294337844,1.01896772969045E-16));
#159=DIRECTION('center_axis',(1.,0.,0.));
#160=DIRECTION('ref_axis',(0.,1.,0.));
#161=DIRECTION('center_axis',(1.,0.,0.));
#162=DIRECTION('ref_axis',(0.,0.,-1.));
#163=DIRECTION('',(-0.999444906979154,0.0333148302326385,4.07989002085382E-18));
#164=DIRECTION('center_axis',(1.,0.,0.));
#165=DIRECTION('ref_axis',(0.,1.,0.));
#166=DIRECTION('',(-0.371390676354104,0.928476690885259,1.13705600757556E-16));
#167=CARTESIAN_POINT('',(0.,0.,0.));
#168=CARTESIAN_POINT('Origin',(163.5,0.,0.));
#169=CARTESIAN_POINT('',(164.,7.,-8.57252759403147E-16));
#170=CARTESIAN_POINT('Origin',(164.,0.,0.));
#171=CARTESIAN_POINT('',(163.,8.,9.79717439317883E-16));
#172=CARTESIAN_POINT('',(163.5,7.5,9.18485099360515E-16));
#173=CARTESIAN_POINT('',(163.,-8.,-9.79717439317883E-16));
#174=CARTESIAN_POINT('Origin',(163.,0.,0.));
#175=CARTESIAN_POINT('Origin',(163.,0.,0.));
#176=CARTESIAN_POINT('Origin',(99.,0.,0.));
#177=CARTESIAN_POINT('',(34.,-8.,-9.79717439317883E-16));
#178=CARTESIAN_POINT('',(99.,-8.,-9.79717439317883E-16));
#179=CARTESIAN_POINT('Origin',(34.,0.,0.));
#180=CARTESIAN_POINT('Origin',(164.,0.,0.));
#181=CARTESIAN_POINT('Origin',(1.49999999999999,0.,0.));
#182=CARTESIAN_POINT('',(2.99999999999999,-4.50000000000001,-5.5109105961631E-16));
#183=CARTESIAN_POINT('Origin',(3.00000000000001,0.,0.));
#184=CARTESIAN_POINT('',(0.,0.,0.));
#185=CARTESIAN_POINT('',(1.49999999999999,-2.25,-2.75545529808154E-16));
#186=CARTESIAN_POINT('Origin',(18.,0.,0.));
#187=CARTESIAN_POINT('',(33.,-5.5,-6.73555739531044E-16));
#188=CARTESIAN_POINT('Origin',(33.,0.,0.));
#189=CARTESIAN_POINT('',(18.,-5.,-6.12323399573677E-16));
#190=CARTESIAN_POINT('Origin',(33.5,0.,0.));
#191=CARTESIAN_POINT('',(33.5,-6.75,-8.26636589424463E-16));
#192=UNCERTAINTY_MEASURE_WITH_UNIT(LENGTH_MEASURE(0.01),#196,
'DISTANCE_ACCURACY_VALUE',
'Maximum model space distance between geometric entities at asserted c
onnectivities');
#193=UNCERTAINTY_MEASURE_WITH_UNIT(LENGTH_MEASURE(0.01),#196,
'DISTANCE_ACCURACY_VALUE',
'Maximum model space distance between geometric entities at asserted c
onnectivities');
#194=(
GEOMETRIC_REPRESENTATION_CONTEXT(3)
GLOBAL_UNCERTAINTY_ASSIGNED_CONTEXT((#192))
GLOBAL_UNIT_ASSIGNED_CONTEXT((#196,#198,#199))
REPRESENTATION_CONTEXT('','3D')
);
#195=(
GEOMETRIC_REPRESENTATION_CONTEXT(3)
GLOBAL_UNCERTAINTY_ASSIGNED_CONTEXT((#193))
GLOBAL_UNIT_ASSIGNED_CONTEXT((#196,#198,#199))
REPRESENTATION_CONTEXT('','3D')
);
#196=(
LENGTH_UNIT()
NAMED_UNIT(*)
SI_UNIT(.MILLI.,.METRE.)
);
#197=(
LENGTH_UNIT()
NAMED_UNIT(*)
SI_UNIT(.CENTI.,.METRE.)
);
#198=(
NAMED_UNIT(*)
PLANE_ANGLE_UNIT()
SI_UNIT($,.RADIAN.)
);
#199=(
NAMED_UNIT(*)
SI_UNIT($,.STERADIAN.)
SOLID_ANGLE_UNIT()
);
#200=SHAPE_DEFINITION_REPRESENTATION(#201,#202);
#201=PRODUCT_DEFINITION_SHAPE('',$,#204);
#202=SHAPE_REPRESENTATION('',(#123),#194);
#203=PRODUCT_DEFINITION_CONTEXT('part definition',#208,'design');
#204=PRODUCT_DEFINITION('NUR','505040 NUR',#205,#203);
#205=PRODUCT_DEFINITION_FORMATION('',$,#210);
#206=PRODUCT_RELATED_PRODUCT_CATEGORY('505040 NUR','505040 NUR',(#210));
#207=APPLICATION_PROTOCOL_DEFINITION('international standard',
'automotive_design',2009,#208);
#208=APPLICATION_CONTEXT(
'Core Data for Automotive Mechanical Design Process');
#209=PRODUCT_CONTEXT('part definition',#208,'mechanical');
#210=PRODUCT('NUR','505040 NUR',$,(#209));
#211=PRESENTATION_STYLE_ASSIGNMENT((#212));
#212=SURFACE_STYLE_USAGE(.BOTH.,#215);
#213=SURFACE_STYLE_RENDERING_WITH_PROPERTIES($,#219,(#214));
#214=SURFACE_STYLE_TRANSPARENT(0.);
#215=SURFACE_SIDE_STYLE('',(#216,#213));
#216=SURFACE_STYLE_FILL_AREA(#217);
#217=FILL_AREA_STYLE('',(#218));
#218=FILL_AREA_STYLE_COLOUR('',#219);
#219=COLOUR_RGB('',0.745098039215686,0.737254901960784,0.729411764705882);
ENDSEC;
END-ISO-10303-21;
