ISO-10303-21;
HEADER;
/* Generated by software containing ST-Developer
 * from STEP Tools, Inc. (www.steptools.com) 
 */

FILE_DESCRIPTION(
/* description */ (''),
/* implementation_level */ '2;1');

FILE_NAME(
/* name */ '308110 PSx1.ipt.stp',
/* time_stamp */ '2023-05-16T17:46:17+03:00',
/* author */ ('Man88'),
/* organization */ (''),
/* preprocessor_version */ 'ST-DEVELOPER v19.2',
/* originating_system */ 'Autodesk Inventor 2023',
/* authorisation */ '');

FILE_SCHEMA (('AUTOMOTIVE_DESIGN { 1 0 10303 214 3 1 1 }'));
ENDSEC;

DATA;
#10=MECHANICAL_DESIGN_GEOMETRIC_PRESENTATION_REPRESENTATION('',(#22,#23,
#24,#25,#26,#27,#28,#29),#378);
#11=SHAPE_REPRESENTATION_RELATIONSHIP('SRR','None',#385,#12);
#12=ADVANCED_BREP_SHAPE_REPRESENTATION('',(#13),#377);
#13=MANIFOLD_SOLID_BREP('\X2\04220432043504400434043E0435\X0\ \X2\04420435043B043E\X0\1',
#213);
#14=FACE_BOUND('',#44,.T.);
#15=FACE_BOUND('',#53,.T.);
#16=PLANE('',#239);
#17=PLANE('',#240);
#18=PLANE('',#247);
#19=PLANE('',#254);
#20=PLANE('',#255);
#21=PLANE('',#256);
#22=STYLED_ITEM('',(#394),#203);
#23=STYLED_ITEM('',(#394),#204);
#24=STYLED_ITEM('',(#394),#206);
#25=STYLED_ITEM('',(#394),#209);
#26=STYLED_ITEM('',(#394),#210);
#27=STYLED_ITEM('',(#394),#211);
#28=STYLED_ITEM('',(#394),#212);
#29=STYLED_ITEM('',(#394),#13);
#30=FACE_OUTER_BOUND('',#41,.T.);
#31=FACE_OUTER_BOUND('',#42,.T.);
#32=FACE_OUTER_BOUND('',#43,.T.);
#33=FACE_OUTER_BOUND('',#45,.T.);
#34=FACE_OUTER_BOUND('',#46,.T.);
#35=FACE_OUTER_BOUND('',#47,.T.);
#36=FACE_OUTER_BOUND('',#48,.T.);
#37=FACE_OUTER_BOUND('',#49,.T.);
#38=FACE_OUTER_BOUND('',#50,.T.);
#39=FACE_OUTER_BOUND('',#51,.T.);
#40=FACE_OUTER_BOUND('',#52,.T.);
#41=EDGE_LOOP('',(#143,#144,#145,#146));
#42=EDGE_LOOP('',(#147,#148,#149,#150));
#43=EDGE_LOOP('',(#151,#152,#153,#154,#155,#156,#157,#158));
#44=EDGE_LOOP('',(#159));
#45=EDGE_LOOP('',(#160,#161,#162,#163));
#46=EDGE_LOOP('',(#164,#165,#166,#167));
#47=EDGE_LOOP('',(#168,#169,#170,#171));
#48=EDGE_LOOP('',(#172,#173,#174,#175));
#49=EDGE_LOOP('',(#176,#177,#178,#179));
#50=EDGE_LOOP('',(#180,#181,#182,#183));
#51=EDGE_LOOP('',(#184,#185,#186,#187));
#52=EDGE_LOOP('',(#188,#189,#190,#191,#192,#193,#194,#195));
#53=EDGE_LOOP('',(#196));
#54=LINE('',#324,#71);
#55=LINE('',#327,#72);
#56=LINE('',#330,#73);
#57=LINE('',#332,#74);
#58=LINE('',#333,#75);
#59=LINE('',#336,#76);
#60=LINE('',#340,#77);
#61=LINE('',#344,#78);
#62=LINE('',#352,#79);
#63=LINE('',#353,#80);
#64=LINE('',#356,#81);
#65=LINE('',#357,#82);
#66=LINE('',#361,#83);
#67=LINE('',#365,#84);
#68=LINE('',#369,#85);
#69=LINE('',#371,#86);
#70=LINE('',#373,#87);
#71=VECTOR('',#263,10.);
#72=VECTOR('',#266,10.);
#73=VECTOR('',#269,10.);
#74=VECTOR('',#270,10.);
#75=VECTOR('',#271,10.);
#76=VECTOR('',#274,10.);
#77=VECTOR('',#277,10.);
#78=VECTOR('',#280,10.);
#79=VECTOR('',#289,10.);
#80=VECTOR('',#290,10.);
#81=VECTOR('',#293,10.);
#82=VECTOR('',#294,10.);
#83=VECTOR('',#299,10.);
#84=VECTOR('',#304,10.);
#85=VECTOR('',#309,7.);
#86=VECTOR('',#312,10.);
#87=VECTOR('',#315,10.);
#88=CIRCLE('',#237,3.);
#89=CIRCLE('',#238,3.);
#90=CIRCLE('',#241,3.);
#91=CIRCLE('',#242,3.);
#92=CIRCLE('',#243,3.);
#93=CIRCLE('',#244,7.);
#94=CIRCLE('',#246,3.);
#95=CIRCLE('',#249,3.);
#96=CIRCLE('',#251,3.);
#97=CIRCLE('',#253,7.);
#98=VERTEX_POINT('',#320);
#99=VERTEX_POINT('',#321);
#100=VERTEX_POINT('',#323);
#101=VERTEX_POINT('',#325);
#102=VERTEX_POINT('',#329);
#103=VERTEX_POINT('',#331);
#104=VERTEX_POINT('',#335);
#105=VERTEX_POINT('',#337);
#106=VERTEX_POINT('',#339);
#107=VERTEX_POINT('',#341);
#108=VERTEX_POINT('',#343);
#109=VERTEX_POINT('',#346);
#110=VERTEX_POINT('',#349);
#111=VERTEX_POINT('',#350);
#112=VERTEX_POINT('',#355);
#113=VERTEX_POINT('',#359);
#114=VERTEX_POINT('',#363);
#115=VERTEX_POINT('',#367);
#116=EDGE_CURVE('',#98,#99,#88,.T.);
#117=EDGE_CURVE('',#99,#100,#54,.T.);
#118=EDGE_CURVE('',#100,#101,#89,.T.);
#119=EDGE_CURVE('',#101,#98,#55,.T.);
#120=EDGE_CURVE('',#102,#101,#56,.T.);
#121=EDGE_CURVE('',#103,#102,#57,.T.);
#122=EDGE_CURVE('',#103,#98,#58,.T.);
#123=EDGE_CURVE('',#100,#104,#59,.T.);
#124=EDGE_CURVE('',#105,#104,#90,.T.);
#125=EDGE_CURVE('',#105,#106,#60,.T.);
#126=EDGE_CURVE('',#107,#106,#91,.T.);
#127=EDGE_CURVE('',#107,#108,#61,.T.);
#128=EDGE_CURVE('',#102,#108,#92,.T.);
#129=EDGE_CURVE('',#109,#109,#93,.T.);
#130=EDGE_CURVE('',#110,#111,#94,.T.);
#131=EDGE_CURVE('',#111,#105,#62,.T.);
#132=EDGE_CURVE('',#104,#110,#63,.T.);
#133=EDGE_CURVE('',#111,#112,#64,.T.);
#134=EDGE_CURVE('',#106,#112,#65,.T.);
#135=EDGE_CURVE('',#112,#113,#95,.T.);
#136=EDGE_CURVE('',#113,#107,#66,.T.);
#137=EDGE_CURVE('',#114,#103,#96,.T.);
#138=EDGE_CURVE('',#108,#114,#67,.T.);
#139=EDGE_CURVE('',#115,#115,#97,.T.);
#140=EDGE_CURVE('',#115,#109,#68,.T.);
#141=EDGE_CURVE('',#99,#110,#69,.T.);
#142=EDGE_CURVE('',#113,#114,#70,.T.);
#143=ORIENTED_EDGE('',*,*,#116,.T.);
#144=ORIENTED_EDGE('',*,*,#117,.T.);
#145=ORIENTED_EDGE('',*,*,#118,.T.);
#146=ORIENTED_EDGE('',*,*,#119,.T.);
#147=ORIENTED_EDGE('',*,*,#119,.F.);
#148=ORIENTED_EDGE('',*,*,#120,.F.);
#149=ORIENTED_EDGE('',*,*,#121,.F.);
#150=ORIENTED_EDGE('',*,*,#122,.T.);
#151=ORIENTED_EDGE('',*,*,#118,.F.);
#152=ORIENTED_EDGE('',*,*,#123,.T.);
#153=ORIENTED_EDGE('',*,*,#124,.F.);
#154=ORIENTED_EDGE('',*,*,#125,.T.);
#155=ORIENTED_EDGE('',*,*,#126,.F.);
#156=ORIENTED_EDGE('',*,*,#127,.T.);
#157=ORIENTED_EDGE('',*,*,#128,.F.);
#158=ORIENTED_EDGE('',*,*,#120,.T.);
#159=ORIENTED_EDGE('',*,*,#129,.T.);
#160=ORIENTED_EDGE('',*,*,#130,.T.);
#161=ORIENTED_EDGE('',*,*,#131,.T.);
#162=ORIENTED_EDGE('',*,*,#124,.T.);
#163=ORIENTED_EDGE('',*,*,#132,.T.);
#164=ORIENTED_EDGE('',*,*,#131,.F.);
#165=ORIENTED_EDGE('',*,*,#133,.T.);
#166=ORIENTED_EDGE('',*,*,#134,.F.);
#167=ORIENTED_EDGE('',*,*,#125,.F.);
#168=ORIENTED_EDGE('',*,*,#135,.T.);
#169=ORIENTED_EDGE('',*,*,#136,.T.);
#170=ORIENTED_EDGE('',*,*,#126,.T.);
#171=ORIENTED_EDGE('',*,*,#134,.T.);
#172=ORIENTED_EDGE('',*,*,#137,.T.);
#173=ORIENTED_EDGE('',*,*,#121,.T.);
#174=ORIENTED_EDGE('',*,*,#128,.T.);
#175=ORIENTED_EDGE('',*,*,#138,.T.);
#176=ORIENTED_EDGE('',*,*,#139,.F.);
#177=ORIENTED_EDGE('',*,*,#140,.T.);
#178=ORIENTED_EDGE('',*,*,#129,.F.);
#179=ORIENTED_EDGE('',*,*,#140,.F.);
#180=ORIENTED_EDGE('',*,*,#117,.F.);
#181=ORIENTED_EDGE('',*,*,#141,.T.);
#182=ORIENTED_EDGE('',*,*,#132,.F.);
#183=ORIENTED_EDGE('',*,*,#123,.F.);
#184=ORIENTED_EDGE('',*,*,#136,.F.);
#185=ORIENTED_EDGE('',*,*,#142,.T.);
#186=ORIENTED_EDGE('',*,*,#138,.F.);
#187=ORIENTED_EDGE('',*,*,#127,.F.);
#188=ORIENTED_EDGE('',*,*,#116,.F.);
#189=ORIENTED_EDGE('',*,*,#122,.F.);
#190=ORIENTED_EDGE('',*,*,#137,.F.);
#191=ORIENTED_EDGE('',*,*,#142,.F.);
#192=ORIENTED_EDGE('',*,*,#135,.F.);
#193=ORIENTED_EDGE('',*,*,#133,.F.);
#194=ORIENTED_EDGE('',*,*,#130,.F.);
#195=ORIENTED_EDGE('',*,*,#141,.F.);
#196=ORIENTED_EDGE('',*,*,#139,.T.);
#197=CYLINDRICAL_SURFACE('',#236,3.);
#198=CYLINDRICAL_SURFACE('',#245,3.);
#199=CYLINDRICAL_SURFACE('',#248,3.);
#200=CYLINDRICAL_SURFACE('',#250,3.);
#201=CYLINDRICAL_SURFACE('',#252,7.);
#202=ADVANCED_FACE('',(#30),#197,.T.);
#203=ADVANCED_FACE('',(#31),#16,.T.);
#204=ADVANCED_FACE('',(#32,#14),#17,.F.);
#205=ADVANCED_FACE('',(#33),#198,.T.);
#206=ADVANCED_FACE('',(#34),#18,.T.);
#207=ADVANCED_FACE('',(#35),#199,.T.);
#208=ADVANCED_FACE('',(#36),#200,.T.);
#209=ADVANCED_FACE('',(#37),#201,.F.);
#210=ADVANCED_FACE('',(#38),#19,.T.);
#211=ADVANCED_FACE('',(#39),#20,.T.);
#212=ADVANCED_FACE('',(#40,#15),#21,.T.);
#213=CLOSED_SHELL('',(#202,#203,#204,#205,#206,#207,#208,#209,#210,#211,
#212));
#214=DERIVED_UNIT_ELEMENT(#217,1.);
#215=DERIVED_UNIT_ELEMENT(#380,-3.);
#216=DIMENSIONAL_EXPONENTS(0.,1.,0.,0.,0.,0.,0.);
#217=(
CONVERSION_BASED_UNIT('gram',#219)
MASS_UNIT()
NAMED_UNIT(#216)
);
#218=(
MASS_UNIT()
NAMED_UNIT(*)
SI_UNIT(.KILO.,.GRAM.)
);
#219=MASS_MEASURE_WITH_UNIT(MASS_MEASURE(0.001),#218);
#220=DERIVED_UNIT((#214,#215));
#221=MEASURE_REPRESENTATION_ITEM('density measure',
POSITIVE_RATIO_MEASURE(1.),#220);
#222=PROPERTY_DEFINITION_REPRESENTATION(#227,#224);
#223=PROPERTY_DEFINITION_REPRESENTATION(#228,#225);
#224=REPRESENTATION('material name',(#226),#377);
#225=REPRESENTATION('density',(#221),#377);
#226=DESCRIPTIVE_REPRESENTATION_ITEM('\X2\04220438043F043E0432044B0435\X0\',
'\X2\04220438043F043E0432044B0435\X0\');
#227=PROPERTY_DEFINITION('material property','material name',#387);
#228=PROPERTY_DEFINITION('material property','density of part',#387);
#229=DATE_TIME_ROLE('creation_date');
#230=APPLIED_DATE_AND_TIME_ASSIGNMENT(#231,#229,(#387));
#231=DATE_AND_TIME(#232,#233);
#232=CALENDAR_DATE(2019,27,6);
#233=LOCAL_TIME(0,0,0.,#234);
#234=COORDINATED_UNIVERSAL_TIME_OFFSET(0,0,.BEHIND.);
#235=AXIS2_PLACEMENT_3D('',#318,#257,#258);
#236=AXIS2_PLACEMENT_3D('',#319,#259,#260);
#237=AXIS2_PLACEMENT_3D('',#322,#261,#262);
#238=AXIS2_PLACEMENT_3D('',#326,#264,#265);
#239=AXIS2_PLACEMENT_3D('',#328,#267,#268);
#240=AXIS2_PLACEMENT_3D('',#334,#272,#273);
#241=AXIS2_PLACEMENT_3D('',#338,#275,#276);
#242=AXIS2_PLACEMENT_3D('',#342,#278,#279);
#243=AXIS2_PLACEMENT_3D('',#345,#281,#282);
#244=AXIS2_PLACEMENT_3D('',#347,#283,#284);
#245=AXIS2_PLACEMENT_3D('',#348,#285,#286);
#246=AXIS2_PLACEMENT_3D('',#351,#287,#288);
#247=AXIS2_PLACEMENT_3D('',#354,#291,#292);
#248=AXIS2_PLACEMENT_3D('',#358,#295,#296);
#249=AXIS2_PLACEMENT_3D('',#360,#297,#298);
#250=AXIS2_PLACEMENT_3D('',#362,#300,#301);
#251=AXIS2_PLACEMENT_3D('',#364,#302,#303);
#252=AXIS2_PLACEMENT_3D('',#366,#305,#306);
#253=AXIS2_PLACEMENT_3D('',#368,#307,#308);
#254=AXIS2_PLACEMENT_3D('',#370,#310,#311);
#255=AXIS2_PLACEMENT_3D('',#372,#313,#314);
#256=AXIS2_PLACEMENT_3D('',#374,#316,#317);
#257=DIRECTION('axis',(0.,0.,1.));
#258=DIRECTION('refdir',(1.,0.,0.));
#259=DIRECTION('center_axis',(0.,1.,0.));
#260=DIRECTION('ref_axis',(-0.707106781186547,0.,0.707106781186548));
#261=DIRECTION('center_axis',(0.,-1.,0.));
#262=DIRECTION('ref_axis',(-0.707106781186547,0.,0.707106781186548));
#263=DIRECTION('',(0.,-1.,0.));
#264=DIRECTION('center_axis',(0.,1.,0.));
#265=DIRECTION('ref_axis',(-0.707106781186547,0.,0.707106781186548));
#266=DIRECTION('',(0.,1.,0.));
#267=DIRECTION('center_axis',(0.,0.,1.));
#268=DIRECTION('ref_axis',(1.,0.,0.));
#269=DIRECTION('',(-1.,0.,0.));
#270=DIRECTION('',(0.,-1.,0.));
#271=DIRECTION('',(-1.,0.,0.));
#272=DIRECTION('center_axis',(0.,1.,0.));
#273=DIRECTION('ref_axis',(0.,0.,1.));
#274=DIRECTION('',(0.,0.,-1.));
#275=DIRECTION('center_axis',(0.,1.,0.));
#276=DIRECTION('ref_axis',(-0.707106781186547,0.,-0.707106781186548));
#277=DIRECTION('',(1.,0.,1.77635683940025E-15));
#278=DIRECTION('center_axis',(0.,1.,0.));
#279=DIRECTION('ref_axis',(0.707106781186548,0.,-0.707106781186547));
#280=DIRECTION('',(3.23790962163385E-17,0.,1.));
#281=DIRECTION('center_axis',(0.,1.,0.));
#282=DIRECTION('ref_axis',(0.707106781186548,0.,0.707106781186547));
#283=DIRECTION('center_axis',(0.,1.,0.));
#284=DIRECTION('ref_axis',(-1.,0.,0.));
#285=DIRECTION('center_axis',(0.,1.,0.));
#286=DIRECTION('ref_axis',(-0.707106781186547,0.,-0.707106781186548));
#287=DIRECTION('center_axis',(0.,-1.,0.));
#288=DIRECTION('ref_axis',(-0.707106781186547,0.,-0.707106781186548));
#289=DIRECTION('',(0.,-1.,0.));
#290=DIRECTION('',(0.,1.,0.));
#291=DIRECTION('center_axis',(1.77635683940025E-15,0.,-1.));
#292=DIRECTION('ref_axis',(-1.,0.,-1.77635683940025E-15));
#293=DIRECTION('',(1.,0.,1.77635683940025E-15));
#294=DIRECTION('',(0.,1.,0.));
#295=DIRECTION('center_axis',(0.,1.,0.));
#296=DIRECTION('ref_axis',(0.707106781186548,0.,-0.707106781186547));
#297=DIRECTION('center_axis',(0.,-1.,0.));
#298=DIRECTION('ref_axis',(0.707106781186548,0.,-0.707106781186547));
#299=DIRECTION('',(0.,-1.,0.));
#300=DIRECTION('center_axis',(0.,1.,0.));
#301=DIRECTION('ref_axis',(0.707106781186548,0.,0.707106781186547));
#302=DIRECTION('center_axis',(0.,-1.,0.));
#303=DIRECTION('ref_axis',(0.707106781186548,0.,0.707106781186547));
#304=DIRECTION('',(0.,1.,0.));
#305=DIRECTION('center_axis',(0.,-1.,0.));
#306=DIRECTION('ref_axis',(-1.,0.,0.));
#307=DIRECTION('center_axis',(0.,-1.,0.));
#308=DIRECTION('ref_axis',(-1.,0.,0.));
#309=DIRECTION('',(0.,-1.,0.));
#310=DIRECTION('center_axis',(-1.,0.,0.));
#311=DIRECTION('ref_axis',(0.,0.,1.));
#312=DIRECTION('',(0.,0.,-1.));
#313=DIRECTION('center_axis',(1.,0.,-3.23790962163385E-17));
#314=DIRECTION('ref_axis',(-3.23790962163385E-17,0.,-1.));
#315=DIRECTION('',(3.23790962163385E-17,0.,1.));
#316=DIRECTION('center_axis',(0.,1.,0.));
#317=DIRECTION('ref_axis',(0.,0.,1.));
#318=CARTESIAN_POINT('',(0.,0.,0.));
#319=CARTESIAN_POINT('Origin',(-37.,0.,-3.));
#320=CARTESIAN_POINT('',(-37.,4.,0.));
#321=CARTESIAN_POINT('',(-40.,4.,-3.));
#322=CARTESIAN_POINT('Origin',(-37.,4.,-3.));
#323=CARTESIAN_POINT('',(-40.,0.,-3.));
#324=CARTESIAN_POINT('',(-40.,0.,-3.));
#325=CARTESIAN_POINT('',(-37.,0.,0.));
#326=CARTESIAN_POINT('Origin',(-37.,0.,-3.));
#327=CARTESIAN_POINT('',(-37.,0.,0.));
#328=CARTESIAN_POINT('Origin',(0.,0.,0.));
#329=CARTESIAN_POINT('',(-3.,0.,0.));
#330=CARTESIAN_POINT('',(0.,0.,0.));
#331=CARTESIAN_POINT('',(-3.,4.,0.));
#332=CARTESIAN_POINT('',(-3.,0.,0.));
#333=CARTESIAN_POINT('',(0.,4.,0.));
#334=CARTESIAN_POINT('Origin',(-20.,0.,-20.));
#335=CARTESIAN_POINT('',(-40.,0.,-37.));
#336=CARTESIAN_POINT('',(-40.,0.,0.));
#337=CARTESIAN_POINT('',(-37.,0.,-40.));
#338=CARTESIAN_POINT('Origin',(-37.,0.,-37.));
#339=CARTESIAN_POINT('',(-2.99999999999999,0.,-40.));
#340=CARTESIAN_POINT('',(-40.,0.,-40.));
#341=CARTESIAN_POINT('',(-1.19802656000452E-15,0.,-37.));
#342=CARTESIAN_POINT('Origin',(-3.,0.,-37.));
#343=CARTESIAN_POINT('',(-9.71372886490152E-17,0.,-3.));
#344=CARTESIAN_POINT('',(-1.29516384865354E-15,0.,-40.));
#345=CARTESIAN_POINT('Origin',(-3.,0.,-3.));
#346=CARTESIAN_POINT('',(-13.,0.,-20.));
#347=CARTESIAN_POINT('Origin',(-20.,0.,-20.));
#348=CARTESIAN_POINT('Origin',(-37.,0.,-37.));
#349=CARTESIAN_POINT('',(-40.,4.,-37.));
#350=CARTESIAN_POINT('',(-37.,4.,-40.));
#351=CARTESIAN_POINT('Origin',(-37.,4.,-37.));
#352=CARTESIAN_POINT('',(-37.,0.,-40.));
#353=CARTESIAN_POINT('',(-40.,0.,-37.));
#354=CARTESIAN_POINT('Origin',(-40.,0.,-40.));
#355=CARTESIAN_POINT('',(-2.99999999999999,4.,-40.));
#356=CARTESIAN_POINT('',(-40.,4.,-40.));
#357=CARTESIAN_POINT('',(-2.99999999999999,0.,-40.));
#358=CARTESIAN_POINT('Origin',(-3.,0.,-37.));
#359=CARTESIAN_POINT('',(-1.19802656000452E-15,4.,-37.));
#360=CARTESIAN_POINT('Origin',(-3.,4.,-37.));
#361=CARTESIAN_POINT('',(-1.11022302462516E-15,0.,-37.));
#362=CARTESIAN_POINT('Origin',(-3.,0.,-3.));
#363=CARTESIAN_POINT('',(-9.71372886490152E-17,4.,-3.));
#364=CARTESIAN_POINT('Origin',(-3.,4.,-3.));
#365=CARTESIAN_POINT('',(0.,0.,-3.));
#366=CARTESIAN_POINT('Origin',(-20.,4.,-20.));
#367=CARTESIAN_POINT('',(-13.,4.,-20.));
#368=CARTESIAN_POINT('Origin',(-20.,4.,-20.));
#369=CARTESIAN_POINT('',(-13.,4.,-20.));
#370=CARTESIAN_POINT('Origin',(-40.,0.,0.));
#371=CARTESIAN_POINT('',(-40.,4.,0.));
#372=CARTESIAN_POINT('Origin',(-1.29516384865354E-15,0.,-40.));
#373=CARTESIAN_POINT('',(-1.29516384865354E-15,4.,-40.));
#374=CARTESIAN_POINT('Origin',(-20.,4.,-20.));
#375=UNCERTAINTY_MEASURE_WITH_UNIT(LENGTH_MEASURE(0.01),#379,
'DISTANCE_ACCURACY_VALUE',
'Maximum model space distance between geometric entities at asserted c
onnectivities');
#376=UNCERTAINTY_MEASURE_WITH_UNIT(LENGTH_MEASURE(0.01),#379,
'DISTANCE_ACCURACY_VALUE',
'Maximum model space distance between geometric entities at asserted c
onnectivities');
#377=(
GEOMETRIC_REPRESENTATION_CONTEXT(3)
GLOBAL_UNCERTAINTY_ASSIGNED_CONTEXT((#375))
GLOBAL_UNIT_ASSIGNED_CONTEXT((#379,#381,#382))
REPRESENTATION_CONTEXT('','3D')
);
#378=(
GEOMETRIC_REPRESENTATION_CONTEXT(3)
GLOBAL_UNCERTAINTY_ASSIGNED_CONTEXT((#376))
GLOBAL_UNIT_ASSIGNED_CONTEXT((#379,#381,#382))
REPRESENTATION_CONTEXT('','3D')
);
#379=(
LENGTH_UNIT()
NAMED_UNIT(*)
SI_UNIT(.MILLI.,.METRE.)
);
#380=(
LENGTH_UNIT()
NAMED_UNIT(*)
SI_UNIT(.CENTI.,.METRE.)
);
#381=(
NAMED_UNIT(*)
PLANE_ANGLE_UNIT()
SI_UNIT($,.RADIAN.)
);
#382=(
NAMED_UNIT(*)
SI_UNIT($,.STERADIAN.)
SOLID_ANGLE_UNIT()
);
#383=SHAPE_DEFINITION_REPRESENTATION(#384,#385);
#384=PRODUCT_DEFINITION_SHAPE('',$,#387);
#385=SHAPE_REPRESENTATION('',(#235),#377);
#386=PRODUCT_DEFINITION_CONTEXT('part definition',#391,'design');
#387=PRODUCT_DEFINITION('\X2\04280430043904310430\X0\ \X2\043A043204300434044004300442043D0430044F\X0\ 
40 \X2\043C043C\X0\, PSx1','308110 PSx1',#388,#386);
#388=PRODUCT_DEFINITION_FORMATION('',$,#393);
#389=PRODUCT_RELATED_PRODUCT_CATEGORY('308110 PSx1','308110 PSx1',(#393));
#390=APPLICATION_PROTOCOL_DEFINITION('international standard',
'automotive_design',2009,#391);
#391=APPLICATION_CONTEXT(
'Core Data for Automotive Mechanical Design Process');
#392=PRODUCT_CONTEXT('part definition',#391,'mechanical');
#393=PRODUCT('\X2\04280430043904310430\X0\ \X2\043A043204300434044004300442043D0430044F\X0\ 
40 \X2\043C043C\X0\, PSx1','308110 PSx1',$,(#392));
#394=PRESENTATION_STYLE_ASSIGNMENT((#395));
#395=SURFACE_STYLE_USAGE(.BOTH.,#398);
#396=SURFACE_STYLE_RENDERING_WITH_PROPERTIES($,#402,(#397));
#397=SURFACE_STYLE_TRANSPARENT(0.);
#398=SURFACE_SIDE_STYLE('',(#399,#396));
#399=SURFACE_STYLE_FILL_AREA(#400);
#400=FILL_AREA_STYLE('',(#401));
#401=FILL_AREA_STYLE_COLOUR('',#402);
#402=COLOUR_RGB('',0.745098039215686,0.737254901960784,0.729411764705882);
ENDSEC;
END-ISO-10303-21;
