ISO-10303-21;
HEADER;
/* Generated by software containing ST-Developer
 * from STEP Tools, Inc. (www.steptools.com) 
 */

FILE_DESCRIPTION(
/* description */ (''),
/* implementation_level */ '2;1');

FILE_NAME(
/* name */ '505030 NS-D16-20-NK-HD.ipt.stp',
/* time_stamp */ '2023-05-19T14:07:10+03:00',
/* author */ ('Manager2'),
/* organization */ (''),
/* preprocessor_version */ 'ST-DEVELOPER v19.2',
/* originating_system */ 'Autodesk Inventor 2023',
/* authorisation */ '');

FILE_SCHEMA (('AUTOMOTIVE_DESIGN { 1 0 10303 214 3 1 1 }'));
ENDSEC;

DATA;
#10=MECHANICAL_DESIGN_GEOMETRIC_PRESENTATION_REPRESENTATION('',(#13),#174);
#11=SHAPE_REPRESENTATION_RELATIONSHIP('SRR','None',#181,#12);
#12=ADVANCED_BREP_SHAPE_REPRESENTATION('',(#14),#173);
#13=STYLED_ITEM('',(#190),#14);
#14=MANIFOLD_SOLID_BREP('\X2\04220432043504400434043E0435\X0\ \X2\04420435043B043E\X0\2',
#87);
#15=FACE_BOUND('',#29,.T.);
#16=PLANE('',#116);
#17=PLANE('',#120);
#18=CYLINDRICAL_SURFACE('',#114,9.);
#19=FACE_OUTER_BOUND('',#25,.T.);
#20=FACE_OUTER_BOUND('',#26,.T.);
#21=FACE_OUTER_BOUND('',#27,.T.);
#22=FACE_OUTER_BOUND('',#28,.T.);
#23=FACE_OUTER_BOUND('',#30,.T.);
#24=FACE_OUTER_BOUND('',#31,.T.);
#25=EDGE_LOOP('',(#60,#61,#62));
#26=EDGE_LOOP('',(#63,#64,#65,#66));
#27=EDGE_LOOP('',(#67,#68,#69,#70));
#28=EDGE_LOOP('',(#71));
#29=EDGE_LOOP('',(#72));
#30=EDGE_LOOP('',(#73,#74,#75,#76));
#31=EDGE_LOOP('',(#77));
#32=LINE('',#154,#36);
#33=LINE('',#158,#37);
#34=LINE('',#162,#38);
#35=LINE('',#168,#39);
#36=VECTOR('',#127,0.999999999999995);
#37=VECTOR('',#132,5.5);
#38=VECTOR('',#137,9.);
#39=VECTOR('',#144,5.);
#40=CIRCLE('',#111,1.99999999999999);
#41=CIRCLE('',#113,9.);
#42=CIRCLE('',#115,9.);
#43=CIRCLE('',#117,6.);
#44=CIRCLE('',#119,4.);
#45=VERTEX_POINT('',#151);
#46=VERTEX_POINT('',#153);
#47=VERTEX_POINT('',#156);
#48=VERTEX_POINT('',#160);
#49=VERTEX_POINT('',#164);
#50=VERTEX_POINT('',#167);
#51=EDGE_CURVE('',#45,#45,#40,.T.);
#52=EDGE_CURVE('',#45,#46,#32,.T.);
#53=EDGE_CURVE('',#47,#47,#41,.T.);
#54=EDGE_CURVE('',#47,#45,#33,.T.);
#55=EDGE_CURVE('',#48,#48,#42,.T.);
#56=EDGE_CURVE('',#48,#47,#34,.T.);
#57=EDGE_CURVE('',#49,#49,#43,.T.);
#58=EDGE_CURVE('',#49,#50,#35,.T.);
#59=EDGE_CURVE('',#50,#50,#44,.T.);
#60=ORIENTED_EDGE('',*,*,#51,.F.);
#61=ORIENTED_EDGE('',*,*,#52,.T.);
#62=ORIENTED_EDGE('',*,*,#52,.F.);
#63=ORIENTED_EDGE('',*,*,#53,.F.);
#64=ORIENTED_EDGE('',*,*,#54,.T.);
#65=ORIENTED_EDGE('',*,*,#51,.T.);
#66=ORIENTED_EDGE('',*,*,#54,.F.);
#67=ORIENTED_EDGE('',*,*,#55,.F.);
#68=ORIENTED_EDGE('',*,*,#56,.T.);
#69=ORIENTED_EDGE('',*,*,#53,.T.);
#70=ORIENTED_EDGE('',*,*,#56,.F.);
#71=ORIENTED_EDGE('',*,*,#55,.T.);
#72=ORIENTED_EDGE('',*,*,#57,.F.);
#73=ORIENTED_EDGE('',*,*,#57,.T.);
#74=ORIENTED_EDGE('',*,*,#58,.T.);
#75=ORIENTED_EDGE('',*,*,#59,.F.);
#76=ORIENTED_EDGE('',*,*,#58,.F.);
#77=ORIENTED_EDGE('',*,*,#59,.T.);
#78=CONICAL_SURFACE('',#110,0.999999999999995,0.463647609000804);
#79=CONICAL_SURFACE('',#112,5.5,0.182168310472764);
#80=CONICAL_SURFACE('',#118,5.,0.055498505245717);
#81=ADVANCED_FACE('',(#19),#78,.T.);
#82=ADVANCED_FACE('',(#20),#79,.T.);
#83=ADVANCED_FACE('',(#21),#18,.T.);
#84=ADVANCED_FACE('',(#22,#15),#16,.T.);
#85=ADVANCED_FACE('',(#23),#80,.F.);
#86=ADVANCED_FACE('',(#24),#17,.T.);
#87=CLOSED_SHELL('',(#81,#82,#83,#84,#85,#86));
#88=DERIVED_UNIT_ELEMENT(#91,1.);
#89=DERIVED_UNIT_ELEMENT(#176,-3.);
#90=DIMENSIONAL_EXPONENTS(0.,1.,0.,0.,0.,0.,0.);
#91=(
CONVERSION_BASED_UNIT('gram',#93)
MASS_UNIT()
NAMED_UNIT(#90)
);
#92=(
MASS_UNIT()
NAMED_UNIT(*)
SI_UNIT(.KILO.,.GRAM.)
);
#93=MASS_MEASURE_WITH_UNIT(MASS_MEASURE(0.001),#92);
#94=DERIVED_UNIT((#88,#89));
#95=MEASURE_REPRESENTATION_ITEM('density measure',
POSITIVE_RATIO_MEASURE(7.85),#94);
#96=PROPERTY_DEFINITION_REPRESENTATION(#101,#98);
#97=PROPERTY_DEFINITION_REPRESENTATION(#102,#99);
#98=REPRESENTATION('material name',(#100),#173);
#99=REPRESENTATION('density',(#95),#173);
#100=DESCRIPTIVE_REPRESENTATION_ITEM('\X2\042104420430043B044C\X0\',
'\X2\042104420430043B044C\X0\');
#101=PROPERTY_DEFINITION('material property','material name',#183);
#102=PROPERTY_DEFINITION('material property','density of part',#183);
#103=DATE_TIME_ROLE('creation_date');
#104=APPLIED_DATE_AND_TIME_ASSIGNMENT(#105,#103,(#183));
#105=DATE_AND_TIME(#106,#107);
#106=CALENDAR_DATE(2022,3,3);
#107=LOCAL_TIME(0,0,0.,#108);
#108=COORDINATED_UNIVERSAL_TIME_OFFSET(0,0,.BEHIND.);
#109=AXIS2_PLACEMENT_3D('',#149,#121,#122);
#110=AXIS2_PLACEMENT_3D('',#150,#123,#124);
#111=AXIS2_PLACEMENT_3D('',#152,#125,#126);
#112=AXIS2_PLACEMENT_3D('',#155,#128,#129);
#113=AXIS2_PLACEMENT_3D('',#157,#130,#131);
#114=AXIS2_PLACEMENT_3D('',#159,#133,#134);
#115=AXIS2_PLACEMENT_3D('',#161,#135,#136);
#116=AXIS2_PLACEMENT_3D('',#163,#138,#139);
#117=AXIS2_PLACEMENT_3D('',#165,#140,#141);
#118=AXIS2_PLACEMENT_3D('',#166,#142,#143);
#119=AXIS2_PLACEMENT_3D('',#169,#145,#146);
#120=AXIS2_PLACEMENT_3D('',#170,#147,#148);
#121=DIRECTION('axis',(0.,0.,1.));
#122=DIRECTION('refdir',(1.,0.,0.));
#123=DIRECTION('center_axis',(0.,-1.,0.));
#124=DIRECTION('ref_axis',(1.,0.,0.));
#125=DIRECTION('center_axis',(0.,-1.,0.));
#126=DIRECTION('ref_axis',(1.,0.,0.));
#127=DIRECTION('',(0.447213595499956,0.894427190999917,5.476786982642E-17));
#128=DIRECTION('center_axis',(0.,-1.,0.));
#129=DIRECTION('ref_axis',(1.,0.,0.));
#130=DIRECTION('center_axis',(0.,-1.,0.));
#131=DIRECTION('ref_axis',(1.,0.,0.));
#132=DIRECTION('',(0.181162429476935,0.983453188589073,2.21859989384686E-17));
#133=DIRECTION('center_axis',(0.,-1.,0.));
#134=DIRECTION('ref_axis',(1.,0.,0.));
#135=DIRECTION('center_axis',(0.,-1.,0.));
#136=DIRECTION('ref_axis',(1.,0.,0.));
#137=DIRECTION('',(0.,1.,0.));
#138=DIRECTION('center_axis',(0.,-1.,0.));
#139=DIRECTION('ref_axis',(0.,0.,-1.));
#140=DIRECTION('center_axis',(0.,-1.,0.));
#141=DIRECTION('ref_axis',(1.,0.,0.));
#142=DIRECTION('center_axis',(0.,-1.,0.));
#143=DIRECTION('ref_axis',(1.,0.,0.));
#144=DIRECTION('',(0.055470019622523,0.998460353205412,6.79311819793637E-18));
#145=DIRECTION('center_axis',(0.,-1.,0.));
#146=DIRECTION('ref_axis',(1.,0.,0.));
#147=DIRECTION('center_axis',(0.,-1.,0.));
#148=DIRECTION('ref_axis',(0.,0.,-1.));
#149=CARTESIAN_POINT('',(0.,0.,0.));
#150=CARTESIAN_POINT('Origin',(0.,86.,0.));
#151=CARTESIAN_POINT('',(-1.99999999999999,84.,-2.4492935982947E-16));
#152=CARTESIAN_POINT('Origin',(0.,84.,0.));
#153=CARTESIAN_POINT('',(0.,88.,0.));
#154=CARTESIAN_POINT('',(-0.999999999999995,86.,-1.22464679914735E-16));
#155=CARTESIAN_POINT('Origin',(0.,65.,0.));
#156=CARTESIAN_POINT('',(-9.,46.,-1.10218211923262E-15));
#157=CARTESIAN_POINT('Origin',(0.,46.,0.));
#158=CARTESIAN_POINT('',(-5.5,65.,-6.73555739531044E-16));
#159=CARTESIAN_POINT('Origin',(0.,23.,0.));
#160=CARTESIAN_POINT('',(-9.,0.,-1.10218211923262E-15));
#161=CARTESIAN_POINT('Origin',(0.,0.,0.));
#162=CARTESIAN_POINT('',(-9.,23.,-1.10218211923262E-15));
#163=CARTESIAN_POINT('Origin',(6.,0.,0.));
#164=CARTESIAN_POINT('',(-6.,0.,-7.34788079488412E-16));
#165=CARTESIAN_POINT('Origin',(0.,0.,0.));
#166=CARTESIAN_POINT('Origin',(0.,18.,0.));
#167=CARTESIAN_POINT('',(-4.,36.,-4.89858719658941E-16));
#168=CARTESIAN_POINT('',(-5.,18.,-6.12323399573676E-16));
#169=CARTESIAN_POINT('Origin',(0.,36.,0.));
#170=CARTESIAN_POINT('Origin',(-3.63924104193109E-15,36.,0.));
#171=UNCERTAINTY_MEASURE_WITH_UNIT(LENGTH_MEASURE(0.01),#175,
'DISTANCE_ACCURACY_VALUE',
'Maximum model space distance between geometric entities at asserted c
onnectivities');
#172=UNCERTAINTY_MEASURE_WITH_UNIT(LENGTH_MEASURE(0.01),#175,
'DISTANCE_ACCURACY_VALUE',
'Maximum model space distance between geometric entities at asserted c
onnectivities');
#173=(
GEOMETRIC_REPRESENTATION_CONTEXT(3)
GLOBAL_UNCERTAINTY_ASSIGNED_CONTEXT((#171))
GLOBAL_UNIT_ASSIGNED_CONTEXT((#175,#177,#178))
REPRESENTATION_CONTEXT('','3D')
);
#174=(
GEOMETRIC_REPRESENTATION_CONTEXT(3)
GLOBAL_UNCERTAINTY_ASSIGNED_CONTEXT((#172))
GLOBAL_UNIT_ASSIGNED_CONTEXT((#175,#177,#178))
REPRESENTATION_CONTEXT('','3D')
);
#175=(
LENGTH_UNIT()
NAMED_UNIT(*)
SI_UNIT(.MILLI.,.METRE.)
);
#176=(
LENGTH_UNIT()
NAMED_UNIT(*)
SI_UNIT(.CENTI.,.METRE.)
);
#177=(
NAMED_UNIT(*)
PLANE_ANGLE_UNIT()
SI_UNIT($,.RADIAN.)
);
#178=(
NAMED_UNIT(*)
SI_UNIT($,.STERADIAN.)
SOLID_ANGLE_UNIT()
);
#179=SHAPE_DEFINITION_REPRESENTATION(#180,#181);
#180=PRODUCT_DEFINITION_SHAPE('',$,#183);
#181=SHAPE_REPRESENTATION('',(#109),#173);
#182=PRODUCT_DEFINITION_CONTEXT('part definition',#187,'design');
#183=PRODUCT_DEFINITION('\X2\0414043504420430043B044C\X0\3',
'505030 NS-D16-20-NK-HD',#184,#182);
#184=PRODUCT_DEFINITION_FORMATION('',$,#189);
#185=PRODUCT_RELATED_PRODUCT_CATEGORY('505030 NS-D16-20-NK-HD',
'505030 NS-D16-20-NK-HD',(#189));
#186=APPLICATION_PROTOCOL_DEFINITION('international standard',
'automotive_design',2009,#187);
#187=APPLICATION_CONTEXT(
'Core Data for Automotive Mechanical Design Process');
#188=PRODUCT_CONTEXT('part definition',#187,'mechanical');
#189=PRODUCT('\X2\0414043504420430043B044C\X0\3',
'505030 NS-D16-20-NK-HD',$,(#188));
#190=PRESENTATION_STYLE_ASSIGNMENT((#191));
#191=SURFACE_STYLE_USAGE(.BOTH.,#194);
#192=SURFACE_STYLE_RENDERING_WITH_PROPERTIES($,#198,(#193));
#193=SURFACE_STYLE_TRANSPARENT(0.);
#194=SURFACE_SIDE_STYLE('',(#195,#192));
#195=SURFACE_STYLE_FILL_AREA(#196);
#196=FILL_AREA_STYLE('',(#197));
#197=FILL_AREA_STYLE_COLOUR('',#198);
#198=COLOUR_RGB('',0.745098039215686,0.737254901960784,0.729411764705882);
ENDSEC;
END-ISO-10303-21;
