ISO-10303-21;
HEADER;
/* Generated by software containing ST-Developer
 * from STEP Tools, Inc. (www.steptools.com) 
 */

FILE_DESCRIPTION(
/* description */ (''),
/* implementation_level */ '2;1');

FILE_NAME(
/* name */ 'USX.ipt.stp',
/* time_stamp */ '2023-05-17T09:46:41+03:00',
/* author */ ('Man88'),
/* organization */ (''),
/* preprocessor_version */ 'ST-DEVELOPER v19.2',
/* originating_system */ 'Autodesk Inventor 2023',
/* authorisation */ '');

FILE_SCHEMA (('AUTOMOTIVE_DESIGN { 1 0 10303 214 3 1 1 }'));
ENDSEC;

DATA;
#10=MECHANICAL_DESIGN_GEOMETRIC_PRESENTATION_REPRESENTATION('',(#13),#651);
#11=SHAPE_REPRESENTATION_RELATIONSHIP('SRR','None',#658,#12);
#12=ADVANCED_BREP_SHAPE_REPRESENTATION('',(#14),#650);
#13=STYLED_ITEM('',(#667),#14);
#14=MANIFOLD_SOLID_BREP('\X2\04220432043504400434043E0435\X0\ \X2\04420435043B043E\X0\1',
#390);
#15=CYLINDRICAL_SURFACE('',#431,7.);
#16=CYLINDRICAL_SURFACE('',#433,6.99999999999999);
#17=CYLINDRICAL_SURFACE('',#435,7.00000000000001);
#18=CYLINDRICAL_SURFACE('',#437,7.);
#19=CYLINDRICAL_SURFACE('',#439,7.);
#20=FACE_BOUND('',#72,.T.);
#21=FACE_BOUND('',#73,.T.);
#22=FACE_BOUND('',#74,.T.);
#23=FACE_BOUND('',#75,.T.);
#24=FACE_BOUND('',#76,.T.);
#25=FACE_BOUND('',#83,.T.);
#26=FACE_BOUND('',#84,.T.);
#27=FACE_BOUND('',#85,.T.);
#28=FACE_BOUND('',#86,.T.);
#29=FACE_BOUND('',#87,.T.);
#30=CIRCLE('',#426,7.);
#31=CIRCLE('',#427,6.99999999999999);
#32=CIRCLE('',#428,7.00000000000001);
#33=CIRCLE('',#429,7.);
#34=CIRCLE('',#430,7.);
#35=CIRCLE('',#432,7.);
#36=CIRCLE('',#434,6.99999999999999);
#37=CIRCLE('',#436,7.00000000000001);
#38=CIRCLE('',#438,7.);
#39=CIRCLE('',#440,7.);
#40=FACE_OUTER_BOUND('',#59,.T.);
#41=FACE_OUTER_BOUND('',#60,.T.);
#42=FACE_OUTER_BOUND('',#61,.T.);
#43=FACE_OUTER_BOUND('',#62,.T.);
#44=FACE_OUTER_BOUND('',#63,.T.);
#45=FACE_OUTER_BOUND('',#64,.T.);
#46=FACE_OUTER_BOUND('',#65,.T.);
#47=FACE_OUTER_BOUND('',#66,.T.);
#48=FACE_OUTER_BOUND('',#67,.T.);
#49=FACE_OUTER_BOUND('',#68,.T.);
#50=FACE_OUTER_BOUND('',#69,.T.);
#51=FACE_OUTER_BOUND('',#70,.T.);
#52=FACE_OUTER_BOUND('',#71,.T.);
#53=FACE_OUTER_BOUND('',#77,.T.);
#54=FACE_OUTER_BOUND('',#78,.T.);
#55=FACE_OUTER_BOUND('',#79,.T.);
#56=FACE_OUTER_BOUND('',#80,.T.);
#57=FACE_OUTER_BOUND('',#81,.T.);
#58=FACE_OUTER_BOUND('',#82,.T.);
#59=EDGE_LOOP('',(#255,#256,#257,#258));
#60=EDGE_LOOP('',(#259,#260,#261,#262));
#61=EDGE_LOOP('',(#263,#264,#265,#266));
#62=EDGE_LOOP('',(#267,#268,#269,#270));
#63=EDGE_LOOP('',(#271,#272,#273,#274));
#64=EDGE_LOOP('',(#275,#276,#277,#278));
#65=EDGE_LOOP('',(#279,#280,#281,#282));
#66=EDGE_LOOP('',(#283,#284,#285,#286));
#67=EDGE_LOOP('',(#287,#288,#289,#290));
#68=EDGE_LOOP('',(#291,#292,#293,#294));
#69=EDGE_LOOP('',(#295,#296,#297,#298));
#70=EDGE_LOOP('',(#299,#300,#301,#302));
#71=EDGE_LOOP('',(#303,#304,#305,#306,#307,#308,#309,#310,#311,#312,#313,
#314));
#72=EDGE_LOOP('',(#315));
#73=EDGE_LOOP('',(#316));
#74=EDGE_LOOP('',(#317));
#75=EDGE_LOOP('',(#318));
#76=EDGE_LOOP('',(#319));
#77=EDGE_LOOP('',(#320,#321,#322,#323));
#78=EDGE_LOOP('',(#324,#325,#326,#327));
#79=EDGE_LOOP('',(#328,#329,#330,#331));
#80=EDGE_LOOP('',(#332,#333,#334,#335));
#81=EDGE_LOOP('',(#336,#337,#338,#339));
#82=EDGE_LOOP('',(#340,#341,#342,#343,#344,#345,#346,#347,#348,#349,#350,
#351));
#83=EDGE_LOOP('',(#352));
#84=EDGE_LOOP('',(#353));
#85=EDGE_LOOP('',(#354));
#86=EDGE_LOOP('',(#355));
#87=EDGE_LOOP('',(#356));
#88=LINE('',#547,#129);
#89=LINE('',#549,#130);
#90=LINE('',#551,#131);
#91=LINE('',#552,#132);
#92=LINE('',#555,#133);
#93=LINE('',#557,#134);
#94=LINE('',#558,#135);
#95=LINE('',#562,#136);
#96=LINE('',#564,#137);
#97=LINE('',#566,#138);
#98=LINE('',#567,#139);
#99=LINE('',#570,#140);
#100=LINE('',#572,#141);
#101=LINE('',#573,#142);
#102=LINE('',#577,#143);
#103=LINE('',#579,#144);
#104=LINE('',#581,#145);
#105=LINE('',#582,#146);
#106=LINE('',#585,#147);
#107=LINE('',#587,#148);
#108=LINE('',#588,#149);
#109=LINE('',#590,#150);
#110=LINE('',#591,#151);
#111=LINE('',#595,#152);
#112=LINE('',#597,#153);
#113=LINE('',#599,#154);
#114=LINE('',#600,#155);
#115=LINE('',#602,#156);
#116=LINE('',#603,#157);
#117=LINE('',#606,#158);
#118=LINE('',#608,#159);
#119=LINE('',#609,#160);
#120=LINE('',#611,#161);
#121=LINE('',#612,#162);
#122=LINE('',#614,#163);
#123=LINE('',#615,#164);
#124=LINE('',#629,#165);
#125=LINE('',#633,#166);
#126=LINE('',#637,#167);
#127=LINE('',#641,#168);
#128=LINE('',#645,#169);
#129=VECTOR('',#446,10.);
#130=VECTOR('',#447,10.);
#131=VECTOR('',#448,10.);
#132=VECTOR('',#449,10.);
#133=VECTOR('',#452,10.);
#134=VECTOR('',#453,10.);
#135=VECTOR('',#454,10.);
#136=VECTOR('',#457,10.);
#137=VECTOR('',#458,10.);
#138=VECTOR('',#459,10.);
#139=VECTOR('',#460,10.);
#140=VECTOR('',#463,10.);
#141=VECTOR('',#464,10.);
#142=VECTOR('',#465,10.);
#143=VECTOR('',#468,10.);
#144=VECTOR('',#469,10.);
#145=VECTOR('',#470,10.);
#146=VECTOR('',#471,10.);
#147=VECTOR('',#474,10.);
#148=VECTOR('',#475,10.);
#149=VECTOR('',#476,10.);
#150=VECTOR('',#479,10.);
#151=VECTOR('',#480,10.);
#152=VECTOR('',#483,10.);
#153=VECTOR('',#484,10.);
#154=VECTOR('',#485,10.);
#155=VECTOR('',#486,10.);
#156=VECTOR('',#489,10.);
#157=VECTOR('',#490,10.);
#158=VECTOR('',#493,10.);
#159=VECTOR('',#494,10.);
#160=VECTOR('',#495,10.);
#161=VECTOR('',#498,10.);
#162=VECTOR('',#499,10.);
#163=VECTOR('',#502,10.);
#164=VECTOR('',#503,10.);
#165=VECTOR('',#518,7.);
#166=VECTOR('',#523,6.99999999999999);
#167=VECTOR('',#528,7.00000000000001);
#168=VECTOR('',#533,7.);
#169=VECTOR('',#538,7.);
#170=VERTEX_POINT('',#545);
#171=VERTEX_POINT('',#546);
#172=VERTEX_POINT('',#548);
#173=VERTEX_POINT('',#550);
#174=VERTEX_POINT('',#554);
#175=VERTEX_POINT('',#556);
#176=VERTEX_POINT('',#560);
#177=VERTEX_POINT('',#561);
#178=VERTEX_POINT('',#563);
#179=VERTEX_POINT('',#565);
#180=VERTEX_POINT('',#569);
#181=VERTEX_POINT('',#571);
#182=VERTEX_POINT('',#575);
#183=VERTEX_POINT('',#576);
#184=VERTEX_POINT('',#578);
#185=VERTEX_POINT('',#580);
#186=VERTEX_POINT('',#584);
#187=VERTEX_POINT('',#586);
#188=VERTEX_POINT('',#593);
#189=VERTEX_POINT('',#594);
#190=VERTEX_POINT('',#596);
#191=VERTEX_POINT('',#598);
#192=VERTEX_POINT('',#605);
#193=VERTEX_POINT('',#607);
#194=VERTEX_POINT('',#617);
#195=VERTEX_POINT('',#619);
#196=VERTEX_POINT('',#621);
#197=VERTEX_POINT('',#623);
#198=VERTEX_POINT('',#625);
#199=VERTEX_POINT('',#628);
#200=VERTEX_POINT('',#632);
#201=VERTEX_POINT('',#636);
#202=VERTEX_POINT('',#640);
#203=VERTEX_POINT('',#644);
#204=EDGE_CURVE('',#170,#171,#88,.T.);
#205=EDGE_CURVE('',#172,#171,#89,.T.);
#206=EDGE_CURVE('',#173,#172,#90,.T.);
#207=EDGE_CURVE('',#173,#170,#91,.T.);
#208=EDGE_CURVE('',#174,#173,#92,.T.);
#209=EDGE_CURVE('',#174,#175,#93,.T.);
#210=EDGE_CURVE('',#175,#170,#94,.T.);
#211=EDGE_CURVE('',#176,#177,#95,.T.);
#212=EDGE_CURVE('',#178,#177,#96,.T.);
#213=EDGE_CURVE('',#179,#178,#97,.T.);
#214=EDGE_CURVE('',#179,#176,#98,.T.);
#215=EDGE_CURVE('',#180,#179,#99,.T.);
#216=EDGE_CURVE('',#180,#181,#100,.T.);
#217=EDGE_CURVE('',#181,#176,#101,.T.);
#218=EDGE_CURVE('',#182,#183,#102,.T.);
#219=EDGE_CURVE('',#182,#184,#103,.T.);
#220=EDGE_CURVE('',#184,#185,#104,.T.);
#221=EDGE_CURVE('',#183,#185,#105,.T.);
#222=EDGE_CURVE('',#185,#186,#106,.T.);
#223=EDGE_CURVE('',#187,#186,#107,.T.);
#224=EDGE_CURVE('',#183,#187,#108,.T.);
#225=EDGE_CURVE('',#177,#175,#109,.T.);
#226=EDGE_CURVE('',#178,#174,#110,.T.);
#227=EDGE_CURVE('',#188,#189,#111,.T.);
#228=EDGE_CURVE('',#188,#190,#112,.T.);
#229=EDGE_CURVE('',#190,#191,#113,.T.);
#230=EDGE_CURVE('',#189,#191,#114,.T.);
#231=EDGE_CURVE('',#191,#181,#115,.T.);
#232=EDGE_CURVE('',#189,#180,#116,.T.);
#233=EDGE_CURVE('',#192,#182,#117,.T.);
#234=EDGE_CURVE('',#192,#193,#118,.T.);
#235=EDGE_CURVE('',#193,#184,#119,.T.);
#236=EDGE_CURVE('',#171,#193,#120,.T.);
#237=EDGE_CURVE('',#172,#192,#121,.T.);
#238=EDGE_CURVE('',#186,#190,#122,.T.);
#239=EDGE_CURVE('',#187,#188,#123,.T.);
#240=EDGE_CURVE('',#194,#194,#30,.T.);
#241=EDGE_CURVE('',#195,#195,#31,.T.);
#242=EDGE_CURVE('',#196,#196,#32,.T.);
#243=EDGE_CURVE('',#197,#197,#33,.T.);
#244=EDGE_CURVE('',#198,#198,#34,.T.);
#245=EDGE_CURVE('',#194,#199,#124,.T.);
#246=EDGE_CURVE('',#199,#199,#35,.T.);
#247=EDGE_CURVE('',#195,#200,#125,.T.);
#248=EDGE_CURVE('',#200,#200,#36,.T.);
#249=EDGE_CURVE('',#196,#201,#126,.T.);
#250=EDGE_CURVE('',#201,#201,#37,.T.);
#251=EDGE_CURVE('',#197,#202,#127,.T.);
#252=EDGE_CURVE('',#202,#202,#38,.T.);
#253=EDGE_CURVE('',#198,#203,#128,.T.);
#254=EDGE_CURVE('',#203,#203,#39,.T.);
#255=ORIENTED_EDGE('',*,*,#204,.T.);
#256=ORIENTED_EDGE('',*,*,#205,.F.);
#257=ORIENTED_EDGE('',*,*,#206,.F.);
#258=ORIENTED_EDGE('',*,*,#207,.T.);
#259=ORIENTED_EDGE('',*,*,#207,.F.);
#260=ORIENTED_EDGE('',*,*,#208,.F.);
#261=ORIENTED_EDGE('',*,*,#209,.T.);
#262=ORIENTED_EDGE('',*,*,#210,.T.);
#263=ORIENTED_EDGE('',*,*,#211,.T.);
#264=ORIENTED_EDGE('',*,*,#212,.F.);
#265=ORIENTED_EDGE('',*,*,#213,.F.);
#266=ORIENTED_EDGE('',*,*,#214,.T.);
#267=ORIENTED_EDGE('',*,*,#214,.F.);
#268=ORIENTED_EDGE('',*,*,#215,.F.);
#269=ORIENTED_EDGE('',*,*,#216,.T.);
#270=ORIENTED_EDGE('',*,*,#217,.T.);
#271=ORIENTED_EDGE('',*,*,#218,.F.);
#272=ORIENTED_EDGE('',*,*,#219,.T.);
#273=ORIENTED_EDGE('',*,*,#220,.T.);
#274=ORIENTED_EDGE('',*,*,#221,.F.);
#275=ORIENTED_EDGE('',*,*,#221,.T.);
#276=ORIENTED_EDGE('',*,*,#222,.T.);
#277=ORIENTED_EDGE('',*,*,#223,.F.);
#278=ORIENTED_EDGE('',*,*,#224,.F.);
#279=ORIENTED_EDGE('',*,*,#212,.T.);
#280=ORIENTED_EDGE('',*,*,#225,.T.);
#281=ORIENTED_EDGE('',*,*,#209,.F.);
#282=ORIENTED_EDGE('',*,*,#226,.F.);
#283=ORIENTED_EDGE('',*,*,#227,.F.);
#284=ORIENTED_EDGE('',*,*,#228,.T.);
#285=ORIENTED_EDGE('',*,*,#229,.T.);
#286=ORIENTED_EDGE('',*,*,#230,.F.);
#287=ORIENTED_EDGE('',*,*,#230,.T.);
#288=ORIENTED_EDGE('',*,*,#231,.T.);
#289=ORIENTED_EDGE('',*,*,#216,.F.);
#290=ORIENTED_EDGE('',*,*,#232,.F.);
#291=ORIENTED_EDGE('',*,*,#219,.F.);
#292=ORIENTED_EDGE('',*,*,#233,.F.);
#293=ORIENTED_EDGE('',*,*,#234,.T.);
#294=ORIENTED_EDGE('',*,*,#235,.T.);
#295=ORIENTED_EDGE('',*,*,#205,.T.);
#296=ORIENTED_EDGE('',*,*,#236,.T.);
#297=ORIENTED_EDGE('',*,*,#234,.F.);
#298=ORIENTED_EDGE('',*,*,#237,.F.);
#299=ORIENTED_EDGE('',*,*,#223,.T.);
#300=ORIENTED_EDGE('',*,*,#238,.T.);
#301=ORIENTED_EDGE('',*,*,#228,.F.);
#302=ORIENTED_EDGE('',*,*,#239,.F.);
#303=ORIENTED_EDGE('',*,*,#206,.T.);
#304=ORIENTED_EDGE('',*,*,#237,.T.);
#305=ORIENTED_EDGE('',*,*,#233,.T.);
#306=ORIENTED_EDGE('',*,*,#218,.T.);
#307=ORIENTED_EDGE('',*,*,#224,.T.);
#308=ORIENTED_EDGE('',*,*,#239,.T.);
#309=ORIENTED_EDGE('',*,*,#227,.T.);
#310=ORIENTED_EDGE('',*,*,#232,.T.);
#311=ORIENTED_EDGE('',*,*,#215,.T.);
#312=ORIENTED_EDGE('',*,*,#213,.T.);
#313=ORIENTED_EDGE('',*,*,#226,.T.);
#314=ORIENTED_EDGE('',*,*,#208,.T.);
#315=ORIENTED_EDGE('',*,*,#240,.T.);
#316=ORIENTED_EDGE('',*,*,#241,.T.);
#317=ORIENTED_EDGE('',*,*,#242,.T.);
#318=ORIENTED_EDGE('',*,*,#243,.T.);
#319=ORIENTED_EDGE('',*,*,#244,.T.);
#320=ORIENTED_EDGE('',*,*,#240,.F.);
#321=ORIENTED_EDGE('',*,*,#245,.T.);
#322=ORIENTED_EDGE('',*,*,#246,.F.);
#323=ORIENTED_EDGE('',*,*,#245,.F.);
#324=ORIENTED_EDGE('',*,*,#241,.F.);
#325=ORIENTED_EDGE('',*,*,#247,.T.);
#326=ORIENTED_EDGE('',*,*,#248,.F.);
#327=ORIENTED_EDGE('',*,*,#247,.F.);
#328=ORIENTED_EDGE('',*,*,#242,.F.);
#329=ORIENTED_EDGE('',*,*,#249,.T.);
#330=ORIENTED_EDGE('',*,*,#250,.F.);
#331=ORIENTED_EDGE('',*,*,#249,.F.);
#332=ORIENTED_EDGE('',*,*,#243,.F.);
#333=ORIENTED_EDGE('',*,*,#251,.T.);
#334=ORIENTED_EDGE('',*,*,#252,.F.);
#335=ORIENTED_EDGE('',*,*,#251,.F.);
#336=ORIENTED_EDGE('',*,*,#244,.F.);
#337=ORIENTED_EDGE('',*,*,#253,.T.);
#338=ORIENTED_EDGE('',*,*,#254,.F.);
#339=ORIENTED_EDGE('',*,*,#253,.F.);
#340=ORIENTED_EDGE('',*,*,#204,.F.);
#341=ORIENTED_EDGE('',*,*,#210,.F.);
#342=ORIENTED_EDGE('',*,*,#225,.F.);
#343=ORIENTED_EDGE('',*,*,#211,.F.);
#344=ORIENTED_EDGE('',*,*,#217,.F.);
#345=ORIENTED_EDGE('',*,*,#231,.F.);
#346=ORIENTED_EDGE('',*,*,#229,.F.);
#347=ORIENTED_EDGE('',*,*,#238,.F.);
#348=ORIENTED_EDGE('',*,*,#222,.F.);
#349=ORIENTED_EDGE('',*,*,#220,.F.);
#350=ORIENTED_EDGE('',*,*,#235,.F.);
#351=ORIENTED_EDGE('',*,*,#236,.F.);
#352=ORIENTED_EDGE('',*,*,#246,.T.);
#353=ORIENTED_EDGE('',*,*,#248,.T.);
#354=ORIENTED_EDGE('',*,*,#250,.T.);
#355=ORIENTED_EDGE('',*,*,#252,.T.);
#356=ORIENTED_EDGE('',*,*,#254,.T.);
#357=PLANE('',#413);
#358=PLANE('',#414);
#359=PLANE('',#415);
#360=PLANE('',#416);
#361=PLANE('',#417);
#362=PLANE('',#418);
#363=PLANE('',#419);
#364=PLANE('',#420);
#365=PLANE('',#421);
#366=PLANE('',#422);
#367=PLANE('',#423);
#368=PLANE('',#424);
#369=PLANE('',#425);
#370=PLANE('',#441);
#371=ADVANCED_FACE('',(#40),#357,.T.);
#372=ADVANCED_FACE('',(#41),#358,.T.);
#373=ADVANCED_FACE('',(#42),#359,.T.);
#374=ADVANCED_FACE('',(#43),#360,.T.);
#375=ADVANCED_FACE('',(#44),#361,.T.);
#376=ADVANCED_FACE('',(#45),#362,.T.);
#377=ADVANCED_FACE('',(#46),#363,.T.);
#378=ADVANCED_FACE('',(#47),#364,.T.);
#379=ADVANCED_FACE('',(#48),#365,.T.);
#380=ADVANCED_FACE('',(#49),#366,.T.);
#381=ADVANCED_FACE('',(#50),#367,.T.);
#382=ADVANCED_FACE('',(#51),#368,.T.);
#383=ADVANCED_FACE('',(#52,#20,#21,#22,#23,#24),#369,.F.);
#384=ADVANCED_FACE('',(#53),#15,.F.);
#385=ADVANCED_FACE('',(#54),#16,.F.);
#386=ADVANCED_FACE('',(#55),#17,.F.);
#387=ADVANCED_FACE('',(#56),#18,.F.);
#388=ADVANCED_FACE('',(#57),#19,.F.);
#389=ADVANCED_FACE('',(#58,#25,#26,#27,#28,#29),#370,.T.);
#390=CLOSED_SHELL('',(#371,#372,#373,#374,#375,#376,#377,#378,#379,#380,
#381,#382,#383,#384,#385,#386,#387,#388,#389));
#391=DERIVED_UNIT_ELEMENT(#394,1.);
#392=DERIVED_UNIT_ELEMENT(#653,-3.);
#393=DIMENSIONAL_EXPONENTS(0.,1.,0.,0.,0.,0.,0.);
#394=(
CONVERSION_BASED_UNIT('gram',#396)
MASS_UNIT()
NAMED_UNIT(#393)
);
#395=(
MASS_UNIT()
NAMED_UNIT(*)
SI_UNIT(.KILO.,.GRAM.)
);
#396=MASS_MEASURE_WITH_UNIT(MASS_MEASURE(0.001),#395);
#397=DERIVED_UNIT((#391,#392));
#398=MEASURE_REPRESENTATION_ITEM('density measure',
POSITIVE_RATIO_MEASURE(1.),#397);
#399=PROPERTY_DEFINITION_REPRESENTATION(#404,#401);
#400=PROPERTY_DEFINITION_REPRESENTATION(#405,#402);
#401=REPRESENTATION('material name',(#403),#650);
#402=REPRESENTATION('density',(#398),#650);
#403=DESCRIPTIVE_REPRESENTATION_ITEM('\X2\04220438043F043E0432044B0435\X0\',
'\X2\04220438043F043E0432044B0435\X0\');
#404=PROPERTY_DEFINITION('material property','material name',#660);
#405=PROPERTY_DEFINITION('material property','density of part',#660);
#406=DATE_TIME_ROLE('creation_date');
#407=APPLIED_DATE_AND_TIME_ASSIGNMENT(#408,#406,(#660));
#408=DATE_AND_TIME(#409,#410);
#409=CALENDAR_DATE(2019,1,7);
#410=LOCAL_TIME(0,0,0.,#411);
#411=COORDINATED_UNIVERSAL_TIME_OFFSET(0,0,.BEHIND.);
#412=AXIS2_PLACEMENT_3D('',#543,#442,#443);
#413=AXIS2_PLACEMENT_3D('',#544,#444,#445);
#414=AXIS2_PLACEMENT_3D('',#553,#450,#451);
#415=AXIS2_PLACEMENT_3D('',#559,#455,#456);
#416=AXIS2_PLACEMENT_3D('',#568,#461,#462);
#417=AXIS2_PLACEMENT_3D('',#574,#466,#467);
#418=AXIS2_PLACEMENT_3D('',#583,#472,#473);
#419=AXIS2_PLACEMENT_3D('',#589,#477,#478);
#420=AXIS2_PLACEMENT_3D('',#592,#481,#482);
#421=AXIS2_PLACEMENT_3D('',#601,#487,#488);
#422=AXIS2_PLACEMENT_3D('',#604,#491,#492);
#423=AXIS2_PLACEMENT_3D('',#610,#496,#497);
#424=AXIS2_PLACEMENT_3D('',#613,#500,#501);
#425=AXIS2_PLACEMENT_3D('',#616,#504,#505);
#426=AXIS2_PLACEMENT_3D('',#618,#506,#507);
#427=AXIS2_PLACEMENT_3D('',#620,#508,#509);
#428=AXIS2_PLACEMENT_3D('',#622,#510,#511);
#429=AXIS2_PLACEMENT_3D('',#624,#512,#513);
#430=AXIS2_PLACEMENT_3D('',#626,#514,#515);
#431=AXIS2_PLACEMENT_3D('',#627,#516,#517);
#432=AXIS2_PLACEMENT_3D('',#630,#519,#520);
#433=AXIS2_PLACEMENT_3D('',#631,#521,#522);
#434=AXIS2_PLACEMENT_3D('',#634,#524,#525);
#435=AXIS2_PLACEMENT_3D('',#635,#526,#527);
#436=AXIS2_PLACEMENT_3D('',#638,#529,#530);
#437=AXIS2_PLACEMENT_3D('',#639,#531,#532);
#438=AXIS2_PLACEMENT_3D('',#642,#534,#535);
#439=AXIS2_PLACEMENT_3D('',#643,#536,#537);
#440=AXIS2_PLACEMENT_3D('',#646,#539,#540);
#441=AXIS2_PLACEMENT_3D('',#647,#541,#542);
#442=DIRECTION('axis',(0.,0.,1.));
#443=DIRECTION('refdir',(1.,0.,0.));
#444=DIRECTION('center_axis',(-1.,0.,0.));
#445=DIRECTION('ref_axis',(0.,0.,1.));
#446=DIRECTION('',(0.,0.,-1.));
#447=DIRECTION('',(0.,1.,0.));
#448=DIRECTION('',(0.,0.,-1.));
#449=DIRECTION('',(0.,1.,0.));
#450=DIRECTION('center_axis',(0.,0.,-1.));
#451=DIRECTION('ref_axis',(-1.,0.,0.));
#452=DIRECTION('',(1.,0.,0.));
#453=DIRECTION('',(0.,1.,0.));
#454=DIRECTION('',(1.,0.,0.));
#455=DIRECTION('center_axis',(0.,0.,1.));
#456=DIRECTION('ref_axis',(1.,0.,0.));
#457=DIRECTION('',(-1.,0.,0.));
#458=DIRECTION('',(0.,1.,0.));
#459=DIRECTION('',(-1.,0.,0.));
#460=DIRECTION('',(0.,1.,0.));
#461=DIRECTION('center_axis',(-1.,0.,0.));
#462=DIRECTION('ref_axis',(0.,0.,1.));
#463=DIRECTION('',(0.,0.,-1.));
#464=DIRECTION('',(0.,1.,0.));
#465=DIRECTION('',(0.,0.,-1.));
#466=DIRECTION('center_axis',(0.,0.,-1.));
#467=DIRECTION('ref_axis',(-1.,0.,0.));
#468=DIRECTION('',(1.,0.,0.));
#469=DIRECTION('',(0.,1.,0.));
#470=DIRECTION('',(1.,0.,0.));
#471=DIRECTION('',(0.,1.,0.));
#472=DIRECTION('center_axis',(1.,0.,0.));
#473=DIRECTION('ref_axis',(0.,0.,-1.));
#474=DIRECTION('',(0.,0.,1.));
#475=DIRECTION('',(0.,1.,0.));
#476=DIRECTION('',(0.,0.,1.));
#477=DIRECTION('center_axis',(-1.,0.,0.));
#478=DIRECTION('ref_axis',(0.,0.,1.));
#479=DIRECTION('',(0.,0.,-1.));
#480=DIRECTION('',(0.,0.,-1.));
#481=DIRECTION('center_axis',(1.,0.,0.));
#482=DIRECTION('ref_axis',(0.,0.,-1.));
#483=DIRECTION('',(0.,0.,1.));
#484=DIRECTION('',(0.,1.,0.));
#485=DIRECTION('',(0.,0.,1.));
#486=DIRECTION('',(0.,1.,0.));
#487=DIRECTION('center_axis',(0.,0.,1.));
#488=DIRECTION('ref_axis',(1.,0.,0.));
#489=DIRECTION('',(-1.,0.,0.));
#490=DIRECTION('',(-1.,0.,0.));
#491=DIRECTION('center_axis',(1.,0.,0.));
#492=DIRECTION('ref_axis',(0.,0.,-1.));
#493=DIRECTION('',(0.,0.,1.));
#494=DIRECTION('',(0.,1.,0.));
#495=DIRECTION('',(0.,0.,1.));
#496=DIRECTION('center_axis',(0.,0.,-1.));
#497=DIRECTION('ref_axis',(-1.,0.,0.));
#498=DIRECTION('',(1.,0.,0.));
#499=DIRECTION('',(1.,0.,0.));
#500=DIRECTION('center_axis',(0.,0.,1.));
#501=DIRECTION('ref_axis',(1.,0.,0.));
#502=DIRECTION('',(-1.,0.,0.));
#503=DIRECTION('',(-1.,0.,0.));
#504=DIRECTION('center_axis',(0.,1.,0.));
#505=DIRECTION('ref_axis',(0.,0.,1.));
#506=DIRECTION('center_axis',(0.,1.,0.));
#507=DIRECTION('ref_axis',(1.,0.,0.));
#508=DIRECTION('center_axis',(0.,1.,0.));
#509=DIRECTION('ref_axis',(1.,0.,0.));
#510=DIRECTION('center_axis',(0.,1.,0.));
#511=DIRECTION('ref_axis',(1.,0.,0.));
#512=DIRECTION('center_axis',(0.,1.,0.));
#513=DIRECTION('ref_axis',(1.,0.,0.));
#514=DIRECTION('center_axis',(0.,1.,0.));
#515=DIRECTION('ref_axis',(1.,0.,0.));
#516=DIRECTION('center_axis',(0.,1.,0.));
#517=DIRECTION('ref_axis',(1.,0.,0.));
#518=DIRECTION('',(0.,1.,0.));
#519=DIRECTION('center_axis',(0.,-1.,0.));
#520=DIRECTION('ref_axis',(1.,0.,0.));
#521=DIRECTION('center_axis',(0.,1.,0.));
#522=DIRECTION('ref_axis',(1.,0.,0.));
#523=DIRECTION('',(0.,1.,0.));
#524=DIRECTION('center_axis',(0.,-1.,0.));
#525=DIRECTION('ref_axis',(1.,0.,0.));
#526=DIRECTION('center_axis',(0.,1.,0.));
#527=DIRECTION('ref_axis',(1.,0.,0.));
#528=DIRECTION('',(0.,1.,0.));
#529=DIRECTION('center_axis',(0.,-1.,0.));
#530=DIRECTION('ref_axis',(1.,0.,0.));
#531=DIRECTION('center_axis',(0.,1.,0.));
#532=DIRECTION('ref_axis',(1.,0.,0.));
#533=DIRECTION('',(0.,1.,0.));
#534=DIRECTION('center_axis',(0.,-1.,0.));
#535=DIRECTION('ref_axis',(1.,0.,0.));
#536=DIRECTION('center_axis',(0.,1.,0.));
#537=DIRECTION('ref_axis',(1.,0.,0.));
#538=DIRECTION('',(0.,1.,0.));
#539=DIRECTION('center_axis',(0.,-1.,0.));
#540=DIRECTION('ref_axis',(1.,0.,0.));
#541=DIRECTION('center_axis',(0.,1.,0.));
#542=DIRECTION('ref_axis',(0.,0.,1.));
#543=CARTESIAN_POINT('',(0.,0.,0.));
#544=CARTESIAN_POINT('Origin',(-40.,0.,-90.));
#545=CARTESIAN_POINT('',(-40.,4.,-90.));
#546=CARTESIAN_POINT('',(-40.,4.,-140.));
#547=CARTESIAN_POINT('',(-40.,4.,-90.));
#548=CARTESIAN_POINT('',(-40.,0.,-140.));
#549=CARTESIAN_POINT('',(-40.,0.,-140.));
#550=CARTESIAN_POINT('',(-40.,0.,-90.));
#551=CARTESIAN_POINT('',(-40.,0.,-90.));
#552=CARTESIAN_POINT('',(-40.,0.,-90.));
#553=CARTESIAN_POINT('Origin',(-90.,0.,-90.));
#554=CARTESIAN_POINT('',(-90.,0.,-90.));
#555=CARTESIAN_POINT('',(-90.,0.,-90.));
#556=CARTESIAN_POINT('',(-90.,4.,-90.));
#557=CARTESIAN_POINT('',(-90.,0.,-90.));
#558=CARTESIAN_POINT('',(-90.,4.,-90.));
#559=CARTESIAN_POINT('Origin',(-40.,0.,-50.));
#560=CARTESIAN_POINT('',(-40.,4.,-50.));
#561=CARTESIAN_POINT('',(-90.,4.,-50.));
#562=CARTESIAN_POINT('',(-40.,4.,-50.));
#563=CARTESIAN_POINT('',(-90.,0.,-50.));
#564=CARTESIAN_POINT('',(-90.,0.,-50.));
#565=CARTESIAN_POINT('',(-40.,0.,-50.));
#566=CARTESIAN_POINT('',(-40.,0.,-50.));
#567=CARTESIAN_POINT('',(-40.,0.,-50.));
#568=CARTESIAN_POINT('Origin',(-40.,0.,0.));
#569=CARTESIAN_POINT('',(-40.,0.,0.));
#570=CARTESIAN_POINT('',(-40.,0.,0.));
#571=CARTESIAN_POINT('',(-40.,4.,0.));
#572=CARTESIAN_POINT('',(-40.,0.,0.));
#573=CARTESIAN_POINT('',(-40.,4.,0.));
#574=CARTESIAN_POINT('Origin',(0.,0.,-90.));
#575=CARTESIAN_POINT('',(0.,0.,-90.));
#576=CARTESIAN_POINT('',(50.,0.,-90.));
#577=CARTESIAN_POINT('',(0.,0.,-90.));
#578=CARTESIAN_POINT('',(0.,4.,-90.));
#579=CARTESIAN_POINT('',(0.,0.,-90.));
#580=CARTESIAN_POINT('',(50.,4.,-90.));
#581=CARTESIAN_POINT('',(0.,4.,-90.));
#582=CARTESIAN_POINT('',(50.,0.,-90.));
#583=CARTESIAN_POINT('Origin',(50.,0.,-90.));
#584=CARTESIAN_POINT('',(50.,4.,-50.));
#585=CARTESIAN_POINT('',(50.,4.,-90.));
#586=CARTESIAN_POINT('',(50.,0.,-50.));
#587=CARTESIAN_POINT('',(50.,0.,-50.));
#588=CARTESIAN_POINT('',(50.,0.,-90.));
#589=CARTESIAN_POINT('Origin',(-90.,0.,-50.));
#590=CARTESIAN_POINT('',(-90.,4.,-50.));
#591=CARTESIAN_POINT('',(-90.,0.,-50.));
#592=CARTESIAN_POINT('Origin',(0.,0.,-50.));
#593=CARTESIAN_POINT('',(0.,0.,-50.));
#594=CARTESIAN_POINT('',(0.,0.,0.));
#595=CARTESIAN_POINT('',(0.,0.,-50.));
#596=CARTESIAN_POINT('',(0.,4.,-50.));
#597=CARTESIAN_POINT('',(0.,0.,-50.));
#598=CARTESIAN_POINT('',(0.,4.,0.));
#599=CARTESIAN_POINT('',(0.,4.,-50.));
#600=CARTESIAN_POINT('',(0.,0.,0.));
#601=CARTESIAN_POINT('Origin',(0.,0.,0.));
#602=CARTESIAN_POINT('',(0.,4.,0.));
#603=CARTESIAN_POINT('',(0.,0.,0.));
#604=CARTESIAN_POINT('Origin',(0.,0.,-140.));
#605=CARTESIAN_POINT('',(0.,0.,-140.));
#606=CARTESIAN_POINT('',(0.,0.,-140.));
#607=CARTESIAN_POINT('',(0.,4.,-140.));
#608=CARTESIAN_POINT('',(0.,0.,-140.));
#609=CARTESIAN_POINT('',(0.,4.,-140.));
#610=CARTESIAN_POINT('Origin',(-40.,0.,-140.));
#611=CARTESIAN_POINT('',(-40.,4.,-140.));
#612=CARTESIAN_POINT('',(-40.,0.,-140.));
#613=CARTESIAN_POINT('Origin',(50.,0.,-50.));
#614=CARTESIAN_POINT('',(50.,4.,-50.));
#615=CARTESIAN_POINT('',(50.,0.,-50.));
#616=CARTESIAN_POINT('Origin',(-20.,0.,-70.));
#617=CARTESIAN_POINT('',(23.,0.,-70.));
#618=CARTESIAN_POINT('Origin',(30.,0.,-70.));
#619=CARTESIAN_POINT('',(-77.,0.,-70.));
#620=CARTESIAN_POINT('Origin',(-70.,0.,-70.));
#621=CARTESIAN_POINT('',(-27.,0.,-120.));
#622=CARTESIAN_POINT('Origin',(-20.,0.,-120.));
#623=CARTESIAN_POINT('',(-27.,0.,-20.));
#624=CARTESIAN_POINT('Origin',(-20.,0.,-20.));
#625=CARTESIAN_POINT('',(-27.,0.,-70.));
#626=CARTESIAN_POINT('Origin',(-20.,0.,-70.));
#627=CARTESIAN_POINT('Origin',(30.,0.,-70.));
#628=CARTESIAN_POINT('',(23.,4.,-70.));
#629=CARTESIAN_POINT('',(23.,0.,-70.));
#630=CARTESIAN_POINT('Origin',(30.,4.,-70.));
#631=CARTESIAN_POINT('Origin',(-70.,0.,-70.));
#632=CARTESIAN_POINT('',(-77.,4.,-70.));
#633=CARTESIAN_POINT('',(-77.,0.,-70.));
#634=CARTESIAN_POINT('Origin',(-70.,4.,-70.));
#635=CARTESIAN_POINT('Origin',(-20.,0.,-120.));
#636=CARTESIAN_POINT('',(-27.,4.,-120.));
#637=CARTESIAN_POINT('',(-27.,0.,-120.));
#638=CARTESIAN_POINT('Origin',(-20.,4.,-120.));
#639=CARTESIAN_POINT('Origin',(-20.,0.,-20.));
#640=CARTESIAN_POINT('',(-27.,4.,-20.));
#641=CARTESIAN_POINT('',(-27.,0.,-20.));
#642=CARTESIAN_POINT('Origin',(-20.,4.,-20.));
#643=CARTESIAN_POINT('Origin',(-20.,0.,-70.));
#644=CARTESIAN_POINT('',(-27.,4.,-70.));
#645=CARTESIAN_POINT('',(-27.,0.,-70.));
#646=CARTESIAN_POINT('Origin',(-20.,4.,-70.));
#647=CARTESIAN_POINT('Origin',(-20.,4.,-70.));
#648=UNCERTAINTY_MEASURE_WITH_UNIT(LENGTH_MEASURE(0.01),#652,
'DISTANCE_ACCURACY_VALUE',
'Maximum model space distance between geometric entities at asserted c
onnectivities');
#649=UNCERTAINTY_MEASURE_WITH_UNIT(LENGTH_MEASURE(0.01),#652,
'DISTANCE_ACCURACY_VALUE',
'Maximum model space distance between geometric entities at asserted c
onnectivities');
#650=(
GEOMETRIC_REPRESENTATION_CONTEXT(3)
GLOBAL_UNCERTAINTY_ASSIGNED_CONTEXT((#648))
GLOBAL_UNIT_ASSIGNED_CONTEXT((#652,#654,#655))
REPRESENTATION_CONTEXT('','3D')
);
#651=(
GEOMETRIC_REPRESENTATION_CONTEXT(3)
GLOBAL_UNCERTAINTY_ASSIGNED_CONTEXT((#649))
GLOBAL_UNIT_ASSIGNED_CONTEXT((#652,#654,#655))
REPRESENTATION_CONTEXT('','3D')
);
#652=(
LENGTH_UNIT()
NAMED_UNIT(*)
SI_UNIT(.MILLI.,.METRE.)
);
#653=(
LENGTH_UNIT()
NAMED_UNIT(*)
SI_UNIT(.CENTI.,.METRE.)
);
#654=(
NAMED_UNIT(*)
PLANE_ANGLE_UNIT()
SI_UNIT($,.RADIAN.)
);
#655=(
NAMED_UNIT(*)
SI_UNIT($,.STERADIAN.)
SOLID_ANGLE_UNIT()
);
#656=SHAPE_DEFINITION_REPRESENTATION(#657,#658);
#657=PRODUCT_DEFINITION_SHAPE('',$,#660);
#658=SHAPE_REPRESENTATION('',(#412),#650);
#659=PRODUCT_DEFINITION_CONTEXT('part definition',#664,'design');
#660=PRODUCT_DEFINITION(
'\X2\0421043E043504340438043D043804420435043B044C043D0430044F\X0\ \X2\043F043B0430044104420438043D0430\X0\ 
\X2\0445\X0\-\X2\043E0431044004300437043D0430044F\X0\ (5 \X2\043E04420432043504400441044204380439\X0\)
, USX','USX',#661,#659);
#661=PRODUCT_DEFINITION_FORMATION('',$,#666);
#662=PRODUCT_RELATED_PRODUCT_CATEGORY('USX','USX',(#666));
#663=APPLICATION_PROTOCOL_DEFINITION('international standard',
'automotive_design',2009,#664);
#664=APPLICATION_CONTEXT(
'Core Data for Automotive Mechanical Design Process');
#665=PRODUCT_CONTEXT('part definition',#664,'mechanical');
#666=PRODUCT(
'\X2\0421043E043504340438043D043804420435043B044C043D0430044F\X0\ \X2\043F043B0430044104420438043D0430\X0\ 
\X2\0445\X0\-\X2\043E0431044004300437043D0430044F\X0\ (5 \X2\043E04420432043504400441044204380439\X0\)
, USX','USX',$,(#665));
#667=PRESENTATION_STYLE_ASSIGNMENT((#668));
#668=SURFACE_STYLE_USAGE(.BOTH.,#671);
#669=SURFACE_STYLE_RENDERING_WITH_PROPERTIES($,#675,(#670));
#670=SURFACE_STYLE_TRANSPARENT(0.);
#671=SURFACE_SIDE_STYLE('',(#672,#669));
#672=SURFACE_STYLE_FILL_AREA(#673);
#673=FILL_AREA_STYLE('',(#674));
#674=FILL_AREA_STYLE_COLOUR('',#675);
#675=COLOUR_RGB('',0.745098039215686,0.737254901960784,0.729411764705882);
ENDSEC;
END-ISO-10303-21;
