ISO-10303-21;
HEADER;
/* Generated by software containing ST-Developer
 * from STEP Tools, Inc. (www.steptools.com) 
 */

FILE_DESCRIPTION(
/* description */ (''),
/* implementation_level */ '2;1');

FILE_NAME(
/* name */ 'UST.ipt.stp',
/* time_stamp */ '2023-05-17T09:46:40+03:00',
/* author */ ('Man88'),
/* organization */ (''),
/* preprocessor_version */ 'ST-DEVELOPER v19.2',
/* originating_system */ 'Autodesk Inventor 2023',
/* authorisation */ '');

FILE_SCHEMA (('AUTOMOTIVE_DESIGN { 1 0 10303 214 3 1 1 }'));
ENDSEC;

DATA;
#10=MECHANICAL_DESIGN_GEOMETRIC_PRESENTATION_REPRESENTATION('',(#13),#480);
#11=SHAPE_REPRESENTATION_RELATIONSHIP('SRR','None',#487,#12);
#12=ADVANCED_BREP_SHAPE_REPRESENTATION('',(#14),#479);
#13=STYLED_ITEM('',(#496),#14);
#14=MANIFOLD_SOLID_BREP('\X2\04220432043504400434043E0435\X0\ \X2\04420435043B043E\X0\1',
#283);
#15=FACE_BOUND('',#62,.T.);
#16=FACE_BOUND('',#63,.T.);
#17=FACE_BOUND('',#64,.T.);
#18=FACE_BOUND('',#65,.T.);
#19=FACE_BOUND('',#67,.T.);
#20=FACE_BOUND('',#68,.T.);
#21=FACE_BOUND('',#69,.T.);
#22=FACE_BOUND('',#70,.T.);
#23=CIRCLE('',#311,7.);
#24=CIRCLE('',#312,7.);
#25=CIRCLE('',#314,7.00000000000001);
#26=CIRCLE('',#315,7.00000000000001);
#27=CIRCLE('',#317,7.00000000000001);
#28=CIRCLE('',#318,7.00000000000001);
#29=CIRCLE('',#320,7.);
#30=CIRCLE('',#321,7.);
#31=CYLINDRICAL_SURFACE('',#310,7.);
#32=CYLINDRICAL_SURFACE('',#313,7.00000000000001);
#33=CYLINDRICAL_SURFACE('',#316,7.00000000000001);
#34=CYLINDRICAL_SURFACE('',#319,7.);
#35=FACE_OUTER_BOUND('',#49,.T.);
#36=FACE_OUTER_BOUND('',#50,.T.);
#37=FACE_OUTER_BOUND('',#51,.T.);
#38=FACE_OUTER_BOUND('',#52,.T.);
#39=FACE_OUTER_BOUND('',#53,.T.);
#40=FACE_OUTER_BOUND('',#54,.T.);
#41=FACE_OUTER_BOUND('',#55,.T.);
#42=FACE_OUTER_BOUND('',#56,.T.);
#43=FACE_OUTER_BOUND('',#57,.T.);
#44=FACE_OUTER_BOUND('',#58,.T.);
#45=FACE_OUTER_BOUND('',#59,.T.);
#46=FACE_OUTER_BOUND('',#60,.T.);
#47=FACE_OUTER_BOUND('',#61,.T.);
#48=FACE_OUTER_BOUND('',#66,.T.);
#49=EDGE_LOOP('',(#187,#188,#189,#190));
#50=EDGE_LOOP('',(#191,#192,#193,#194));
#51=EDGE_LOOP('',(#195,#196,#197,#198));
#52=EDGE_LOOP('',(#199,#200,#201,#202));
#53=EDGE_LOOP('',(#203,#204,#205,#206));
#54=EDGE_LOOP('',(#207,#208,#209,#210));
#55=EDGE_LOOP('',(#211,#212,#213,#214));
#56=EDGE_LOOP('',(#215,#216,#217,#218));
#57=EDGE_LOOP('',(#219,#220,#221,#222));
#58=EDGE_LOOP('',(#223,#224,#225,#226));
#59=EDGE_LOOP('',(#227,#228,#229,#230));
#60=EDGE_LOOP('',(#231,#232,#233,#234));
#61=EDGE_LOOP('',(#235,#236,#237,#238,#239,#240,#241,#242));
#62=EDGE_LOOP('',(#243));
#63=EDGE_LOOP('',(#244));
#64=EDGE_LOOP('',(#245));
#65=EDGE_LOOP('',(#246));
#66=EDGE_LOOP('',(#247,#248,#249,#250,#251,#252,#253,#254));
#67=EDGE_LOOP('',(#255));
#68=EDGE_LOOP('',(#256));
#69=EDGE_LOOP('',(#257));
#70=EDGE_LOOP('',(#258));
#71=LINE('',#406,#99);
#72=LINE('',#408,#100);
#73=LINE('',#410,#101);
#74=LINE('',#411,#102);
#75=LINE('',#414,#103);
#76=LINE('',#416,#104);
#77=LINE('',#417,#105);
#78=LINE('',#421,#106);
#79=LINE('',#423,#107);
#80=LINE('',#425,#108);
#81=LINE('',#426,#109);
#82=LINE('',#429,#110);
#83=LINE('',#431,#111);
#84=LINE('',#432,#112);
#85=LINE('',#437,#113);
#86=LINE('',#443,#114);
#87=LINE('',#449,#115);
#88=LINE('',#455,#116);
#89=LINE('',#459,#117);
#90=LINE('',#461,#118);
#91=LINE('',#462,#119);
#92=LINE('',#464,#120);
#93=LINE('',#465,#121);
#94=LINE('',#468,#122);
#95=LINE('',#470,#123);
#96=LINE('',#471,#124);
#97=LINE('',#473,#125);
#98=LINE('',#474,#126);
#99=VECTOR('',#332,10.);
#100=VECTOR('',#333,10.);
#101=VECTOR('',#334,10.);
#102=VECTOR('',#335,10.);
#103=VECTOR('',#338,10.);
#104=VECTOR('',#339,10.);
#105=VECTOR('',#340,10.);
#106=VECTOR('',#343,10.);
#107=VECTOR('',#344,10.);
#108=VECTOR('',#345,10.);
#109=VECTOR('',#346,10.);
#110=VECTOR('',#349,10.);
#111=VECTOR('',#350,10.);
#112=VECTOR('',#351,10.);
#113=VECTOR('',#356,7.);
#114=VECTOR('',#363,7.00000000000001);
#115=VECTOR('',#370,7.00000000000001);
#116=VECTOR('',#377,7.);
#117=VECTOR('',#382,10.);
#118=VECTOR('',#383,10.);
#119=VECTOR('',#384,10.);
#120=VECTOR('',#387,10.);
#121=VECTOR('',#388,10.);
#122=VECTOR('',#391,10.);
#123=VECTOR('',#392,10.);
#124=VECTOR('',#393,10.);
#125=VECTOR('',#396,10.);
#126=VECTOR('',#397,10.);
#127=VERTEX_POINT('',#404);
#128=VERTEX_POINT('',#405);
#129=VERTEX_POINT('',#407);
#130=VERTEX_POINT('',#409);
#131=VERTEX_POINT('',#413);
#132=VERTEX_POINT('',#415);
#133=VERTEX_POINT('',#419);
#134=VERTEX_POINT('',#420);
#135=VERTEX_POINT('',#422);
#136=VERTEX_POINT('',#424);
#137=VERTEX_POINT('',#428);
#138=VERTEX_POINT('',#430);
#139=VERTEX_POINT('',#434);
#140=VERTEX_POINT('',#436);
#141=VERTEX_POINT('',#440);
#142=VERTEX_POINT('',#442);
#143=VERTEX_POINT('',#446);
#144=VERTEX_POINT('',#448);
#145=VERTEX_POINT('',#452);
#146=VERTEX_POINT('',#454);
#147=VERTEX_POINT('',#458);
#148=VERTEX_POINT('',#460);
#149=VERTEX_POINT('',#467);
#150=VERTEX_POINT('',#469);
#151=EDGE_CURVE('',#127,#128,#71,.T.);
#152=EDGE_CURVE('',#129,#128,#72,.T.);
#153=EDGE_CURVE('',#129,#130,#73,.T.);
#154=EDGE_CURVE('',#130,#127,#74,.T.);
#155=EDGE_CURVE('',#130,#131,#75,.T.);
#156=EDGE_CURVE('',#131,#132,#76,.T.);
#157=EDGE_CURVE('',#132,#127,#77,.T.);
#158=EDGE_CURVE('',#133,#134,#78,.T.);
#159=EDGE_CURVE('',#135,#134,#79,.T.);
#160=EDGE_CURVE('',#135,#136,#80,.T.);
#161=EDGE_CURVE('',#136,#133,#81,.T.);
#162=EDGE_CURVE('',#136,#137,#82,.T.);
#163=EDGE_CURVE('',#137,#138,#83,.T.);
#164=EDGE_CURVE('',#138,#133,#84,.T.);
#165=EDGE_CURVE('',#139,#139,#23,.T.);
#166=EDGE_CURVE('',#139,#140,#85,.T.);
#167=EDGE_CURVE('',#140,#140,#24,.T.);
#168=EDGE_CURVE('',#141,#141,#25,.T.);
#169=EDGE_CURVE('',#141,#142,#86,.T.);
#170=EDGE_CURVE('',#142,#142,#26,.T.);
#171=EDGE_CURVE('',#143,#143,#27,.T.);
#172=EDGE_CURVE('',#143,#144,#87,.T.);
#173=EDGE_CURVE('',#144,#144,#28,.T.);
#174=EDGE_CURVE('',#145,#145,#29,.T.);
#175=EDGE_CURVE('',#145,#146,#88,.T.);
#176=EDGE_CURVE('',#146,#146,#30,.T.);
#177=EDGE_CURVE('',#147,#138,#89,.T.);
#178=EDGE_CURVE('',#137,#148,#90,.T.);
#179=EDGE_CURVE('',#148,#147,#91,.T.);
#180=EDGE_CURVE('',#134,#132,#92,.T.);
#181=EDGE_CURVE('',#131,#135,#93,.T.);
#182=EDGE_CURVE('',#128,#149,#94,.T.);
#183=EDGE_CURVE('',#150,#149,#95,.T.);
#184=EDGE_CURVE('',#150,#129,#96,.T.);
#185=EDGE_CURVE('',#149,#147,#97,.T.);
#186=EDGE_CURVE('',#148,#150,#98,.T.);
#187=ORIENTED_EDGE('',*,*,#151,.T.);
#188=ORIENTED_EDGE('',*,*,#152,.F.);
#189=ORIENTED_EDGE('',*,*,#153,.T.);
#190=ORIENTED_EDGE('',*,*,#154,.T.);
#191=ORIENTED_EDGE('',*,*,#154,.F.);
#192=ORIENTED_EDGE('',*,*,#155,.T.);
#193=ORIENTED_EDGE('',*,*,#156,.T.);
#194=ORIENTED_EDGE('',*,*,#157,.T.);
#195=ORIENTED_EDGE('',*,*,#158,.T.);
#196=ORIENTED_EDGE('',*,*,#159,.F.);
#197=ORIENTED_EDGE('',*,*,#160,.T.);
#198=ORIENTED_EDGE('',*,*,#161,.T.);
#199=ORIENTED_EDGE('',*,*,#161,.F.);
#200=ORIENTED_EDGE('',*,*,#162,.T.);
#201=ORIENTED_EDGE('',*,*,#163,.T.);
#202=ORIENTED_EDGE('',*,*,#164,.T.);
#203=ORIENTED_EDGE('',*,*,#165,.F.);
#204=ORIENTED_EDGE('',*,*,#166,.T.);
#205=ORIENTED_EDGE('',*,*,#167,.F.);
#206=ORIENTED_EDGE('',*,*,#166,.F.);
#207=ORIENTED_EDGE('',*,*,#168,.F.);
#208=ORIENTED_EDGE('',*,*,#169,.T.);
#209=ORIENTED_EDGE('',*,*,#170,.F.);
#210=ORIENTED_EDGE('',*,*,#169,.F.);
#211=ORIENTED_EDGE('',*,*,#171,.F.);
#212=ORIENTED_EDGE('',*,*,#172,.T.);
#213=ORIENTED_EDGE('',*,*,#173,.F.);
#214=ORIENTED_EDGE('',*,*,#172,.F.);
#215=ORIENTED_EDGE('',*,*,#174,.F.);
#216=ORIENTED_EDGE('',*,*,#175,.T.);
#217=ORIENTED_EDGE('',*,*,#176,.F.);
#218=ORIENTED_EDGE('',*,*,#175,.F.);
#219=ORIENTED_EDGE('',*,*,#177,.T.);
#220=ORIENTED_EDGE('',*,*,#163,.F.);
#221=ORIENTED_EDGE('',*,*,#178,.T.);
#222=ORIENTED_EDGE('',*,*,#179,.T.);
#223=ORIENTED_EDGE('',*,*,#180,.T.);
#224=ORIENTED_EDGE('',*,*,#156,.F.);
#225=ORIENTED_EDGE('',*,*,#181,.T.);
#226=ORIENTED_EDGE('',*,*,#159,.T.);
#227=ORIENTED_EDGE('',*,*,#182,.T.);
#228=ORIENTED_EDGE('',*,*,#183,.F.);
#229=ORIENTED_EDGE('',*,*,#184,.T.);
#230=ORIENTED_EDGE('',*,*,#152,.T.);
#231=ORIENTED_EDGE('',*,*,#185,.T.);
#232=ORIENTED_EDGE('',*,*,#179,.F.);
#233=ORIENTED_EDGE('',*,*,#186,.T.);
#234=ORIENTED_EDGE('',*,*,#183,.T.);
#235=ORIENTED_EDGE('',*,*,#153,.F.);
#236=ORIENTED_EDGE('',*,*,#184,.F.);
#237=ORIENTED_EDGE('',*,*,#186,.F.);
#238=ORIENTED_EDGE('',*,*,#178,.F.);
#239=ORIENTED_EDGE('',*,*,#162,.F.);
#240=ORIENTED_EDGE('',*,*,#160,.F.);
#241=ORIENTED_EDGE('',*,*,#181,.F.);
#242=ORIENTED_EDGE('',*,*,#155,.F.);
#243=ORIENTED_EDGE('',*,*,#165,.T.);
#244=ORIENTED_EDGE('',*,*,#168,.T.);
#245=ORIENTED_EDGE('',*,*,#171,.T.);
#246=ORIENTED_EDGE('',*,*,#174,.T.);
#247=ORIENTED_EDGE('',*,*,#151,.F.);
#248=ORIENTED_EDGE('',*,*,#157,.F.);
#249=ORIENTED_EDGE('',*,*,#180,.F.);
#250=ORIENTED_EDGE('',*,*,#158,.F.);
#251=ORIENTED_EDGE('',*,*,#164,.F.);
#252=ORIENTED_EDGE('',*,*,#177,.F.);
#253=ORIENTED_EDGE('',*,*,#185,.F.);
#254=ORIENTED_EDGE('',*,*,#182,.F.);
#255=ORIENTED_EDGE('',*,*,#167,.T.);
#256=ORIENTED_EDGE('',*,*,#170,.T.);
#257=ORIENTED_EDGE('',*,*,#173,.T.);
#258=ORIENTED_EDGE('',*,*,#176,.T.);
#259=PLANE('',#306);
#260=PLANE('',#307);
#261=PLANE('',#308);
#262=PLANE('',#309);
#263=PLANE('',#322);
#264=PLANE('',#323);
#265=PLANE('',#324);
#266=PLANE('',#325);
#267=PLANE('',#326);
#268=PLANE('',#327);
#269=ADVANCED_FACE('',(#35),#259,.T.);
#270=ADVANCED_FACE('',(#36),#260,.T.);
#271=ADVANCED_FACE('',(#37),#261,.T.);
#272=ADVANCED_FACE('',(#38),#262,.T.);
#273=ADVANCED_FACE('',(#39),#31,.F.);
#274=ADVANCED_FACE('',(#40),#32,.F.);
#275=ADVANCED_FACE('',(#41),#33,.F.);
#276=ADVANCED_FACE('',(#42),#34,.F.);
#277=ADVANCED_FACE('',(#43),#263,.T.);
#278=ADVANCED_FACE('',(#44),#264,.T.);
#279=ADVANCED_FACE('',(#45),#265,.T.);
#280=ADVANCED_FACE('',(#46),#266,.T.);
#281=ADVANCED_FACE('',(#47,#15,#16,#17,#18),#267,.F.);
#282=ADVANCED_FACE('',(#48,#19,#20,#21,#22),#268,.T.);
#283=CLOSED_SHELL('',(#269,#270,#271,#272,#273,#274,#275,#276,#277,#278,
#279,#280,#281,#282));
#284=DERIVED_UNIT_ELEMENT(#287,1.);
#285=DERIVED_UNIT_ELEMENT(#482,-3.);
#286=DIMENSIONAL_EXPONENTS(0.,1.,0.,0.,0.,0.,0.);
#287=(
CONVERSION_BASED_UNIT('gram',#289)
MASS_UNIT()
NAMED_UNIT(#286)
);
#288=(
MASS_UNIT()
NAMED_UNIT(*)
SI_UNIT(.KILO.,.GRAM.)
);
#289=MASS_MEASURE_WITH_UNIT(MASS_MEASURE(0.001),#288);
#290=DERIVED_UNIT((#284,#285));
#291=MEASURE_REPRESENTATION_ITEM('density measure',
POSITIVE_RATIO_MEASURE(7.872),#290);
#292=PROPERTY_DEFINITION_REPRESENTATION(#297,#294);
#293=PROPERTY_DEFINITION_REPRESENTATION(#298,#295);
#294=REPRESENTATION('material name',(#296),#479);
#295=REPRESENTATION('density',(#291),#479);
#296=DESCRIPTIVE_REPRESENTATION_ITEM(
'\X2\042104420430043B044C\X0\ AISI 1008 91, \X2\0433043E0440044F04470435043A043004420430043D0430044F\X0\',
'\X2\042104420430043B044C\X0\ AISI 1008 91, \X2\0433043E0440044F04470435043A043004420430043D0430044F\X0\');
#297=PROPERTY_DEFINITION('material property','material name',#489);
#298=PROPERTY_DEFINITION('material property','density of part',#489);
#299=DATE_TIME_ROLE('creation_date');
#300=APPLIED_DATE_AND_TIME_ASSIGNMENT(#301,#299,(#489));
#301=DATE_AND_TIME(#302,#303);
#302=CALENDAR_DATE(2019,1,7);
#303=LOCAL_TIME(0,0,0.,#304);
#304=COORDINATED_UNIVERSAL_TIME_OFFSET(0,0,.BEHIND.);
#305=AXIS2_PLACEMENT_3D('',#402,#328,#329);
#306=AXIS2_PLACEMENT_3D('',#403,#330,#331);
#307=AXIS2_PLACEMENT_3D('',#412,#336,#337);
#308=AXIS2_PLACEMENT_3D('',#418,#341,#342);
#309=AXIS2_PLACEMENT_3D('',#427,#347,#348);
#310=AXIS2_PLACEMENT_3D('',#433,#352,#353);
#311=AXIS2_PLACEMENT_3D('',#435,#354,#355);
#312=AXIS2_PLACEMENT_3D('',#438,#357,#358);
#313=AXIS2_PLACEMENT_3D('',#439,#359,#360);
#314=AXIS2_PLACEMENT_3D('',#441,#361,#362);
#315=AXIS2_PLACEMENT_3D('',#444,#364,#365);
#316=AXIS2_PLACEMENT_3D('',#445,#366,#367);
#317=AXIS2_PLACEMENT_3D('',#447,#368,#369);
#318=AXIS2_PLACEMENT_3D('',#450,#371,#372);
#319=AXIS2_PLACEMENT_3D('',#451,#373,#374);
#320=AXIS2_PLACEMENT_3D('',#453,#375,#376);
#321=AXIS2_PLACEMENT_3D('',#456,#378,#379);
#322=AXIS2_PLACEMENT_3D('',#457,#380,#381);
#323=AXIS2_PLACEMENT_3D('',#463,#385,#386);
#324=AXIS2_PLACEMENT_3D('',#466,#389,#390);
#325=AXIS2_PLACEMENT_3D('',#472,#394,#395);
#326=AXIS2_PLACEMENT_3D('',#475,#398,#399);
#327=AXIS2_PLACEMENT_3D('',#476,#400,#401);
#328=DIRECTION('axis',(0.,0.,1.));
#329=DIRECTION('refdir',(1.,0.,0.));
#330=DIRECTION('center_axis',(-1.,0.,0.));
#331=DIRECTION('ref_axis',(0.,0.,1.));
#332=DIRECTION('',(0.,0.,-1.));
#333=DIRECTION('',(0.,1.,0.));
#334=DIRECTION('',(0.,0.,1.));
#335=DIRECTION('',(0.,1.,0.));
#336=DIRECTION('center_axis',(0.,0.,-1.));
#337=DIRECTION('ref_axis',(-1.,0.,0.));
#338=DIRECTION('',(-1.,0.,0.));
#339=DIRECTION('',(0.,1.,0.));
#340=DIRECTION('',(1.,0.,0.));
#341=DIRECTION('center_axis',(0.,0.,1.));
#342=DIRECTION('ref_axis',(1.,0.,0.));
#343=DIRECTION('',(-1.,0.,0.));
#344=DIRECTION('',(0.,1.,0.));
#345=DIRECTION('',(1.,0.,0.));
#346=DIRECTION('',(0.,1.,0.));
#347=DIRECTION('center_axis',(-1.,0.,0.));
#348=DIRECTION('ref_axis',(0.,0.,1.));
#349=DIRECTION('',(0.,0.,1.));
#350=DIRECTION('',(0.,1.,0.));
#351=DIRECTION('',(0.,0.,-1.));
#352=DIRECTION('center_axis',(0.,1.,0.));
#353=DIRECTION('ref_axis',(1.,0.,0.));
#354=DIRECTION('center_axis',(0.,1.,0.));
#355=DIRECTION('ref_axis',(1.,0.,0.));
#356=DIRECTION('',(0.,1.,0.));
#357=DIRECTION('center_axis',(0.,-1.,0.));
#358=DIRECTION('ref_axis',(1.,0.,0.));
#359=DIRECTION('center_axis',(0.,1.,0.));
#360=DIRECTION('ref_axis',(1.,0.,0.));
#361=DIRECTION('center_axis',(0.,1.,0.));
#362=DIRECTION('ref_axis',(1.,0.,0.));
#363=DIRECTION('',(0.,1.,0.));
#364=DIRECTION('center_axis',(0.,-1.,0.));
#365=DIRECTION('ref_axis',(1.,0.,0.));
#366=DIRECTION('center_axis',(0.,1.,0.));
#367=DIRECTION('ref_axis',(1.,0.,0.));
#368=DIRECTION('center_axis',(0.,1.,0.));
#369=DIRECTION('ref_axis',(1.,0.,0.));
#370=DIRECTION('',(0.,1.,0.));
#371=DIRECTION('center_axis',(0.,-1.,0.));
#372=DIRECTION('ref_axis',(1.,0.,0.));
#373=DIRECTION('center_axis',(0.,1.,0.));
#374=DIRECTION('ref_axis',(1.,0.,0.));
#375=DIRECTION('center_axis',(0.,1.,0.));
#376=DIRECTION('ref_axis',(1.,0.,0.));
#377=DIRECTION('',(0.,1.,0.));
#378=DIRECTION('center_axis',(0.,-1.,0.));
#379=DIRECTION('ref_axis',(1.,0.,0.));
#380=DIRECTION('center_axis',(0.,0.,1.));
#381=DIRECTION('ref_axis',(1.,0.,0.));
#382=DIRECTION('',(-1.,0.,0.));
#383=DIRECTION('',(1.,0.,0.));
#384=DIRECTION('',(0.,1.,0.));
#385=DIRECTION('center_axis',(-1.,0.,0.));
#386=DIRECTION('ref_axis',(0.,0.,1.));
#387=DIRECTION('',(0.,0.,-1.));
#388=DIRECTION('',(0.,0.,1.));
#389=DIRECTION('center_axis',(0.,0.,-1.));
#390=DIRECTION('ref_axis',(-1.,0.,0.));
#391=DIRECTION('',(1.,0.,0.));
#392=DIRECTION('',(0.,1.,0.));
#393=DIRECTION('',(-1.,0.,0.));
#394=DIRECTION('center_axis',(1.,0.,0.));
#395=DIRECTION('ref_axis',(0.,0.,-1.));
#396=DIRECTION('',(0.,0.,1.));
#397=DIRECTION('',(0.,0.,-1.));
#398=DIRECTION('center_axis',(0.,1.,0.));
#399=DIRECTION('ref_axis',(0.,0.,1.));
#400=DIRECTION('center_axis',(0.,1.,0.));
#401=DIRECTION('ref_axis',(0.,0.,1.));
#402=CARTESIAN_POINT('',(0.,0.,0.));
#403=CARTESIAN_POINT('Origin',(-40.,0.,-89.));
#404=CARTESIAN_POINT('',(-40.,4.,-89.));
#405=CARTESIAN_POINT('',(-40.,4.,-138.));
#406=CARTESIAN_POINT('',(-40.,4.,-138.));
#407=CARTESIAN_POINT('',(-40.,0.,-138.));
#408=CARTESIAN_POINT('',(-40.,0.,-138.));
#409=CARTESIAN_POINT('',(-40.,0.,-89.));
#410=CARTESIAN_POINT('',(-40.,0.,-138.));
#411=CARTESIAN_POINT('',(-40.,0.,-89.));
#412=CARTESIAN_POINT('Origin',(-90.,0.,-89.));
#413=CARTESIAN_POINT('',(-90.,0.,-89.));
#414=CARTESIAN_POINT('',(-40.,0.,-89.));
#415=CARTESIAN_POINT('',(-90.,4.,-89.));
#416=CARTESIAN_POINT('',(-90.,0.,-89.));
#417=CARTESIAN_POINT('',(-40.,4.,-89.));
#418=CARTESIAN_POINT('Origin',(-40.,0.,-49.));
#419=CARTESIAN_POINT('',(-40.,4.,-49.));
#420=CARTESIAN_POINT('',(-90.,4.,-49.));
#421=CARTESIAN_POINT('',(-90.,4.,-49.));
#422=CARTESIAN_POINT('',(-90.,0.,-49.));
#423=CARTESIAN_POINT('',(-90.,0.,-49.));
#424=CARTESIAN_POINT('',(-40.,0.,-49.));
#425=CARTESIAN_POINT('',(-90.,0.,-49.));
#426=CARTESIAN_POINT('',(-40.,0.,-49.));
#427=CARTESIAN_POINT('Origin',(-40.,0.,0.));
#428=CARTESIAN_POINT('',(-40.,0.,0.));
#429=CARTESIAN_POINT('',(-40.,0.,-49.));
#430=CARTESIAN_POINT('',(-40.,4.,0.));
#431=CARTESIAN_POINT('',(-40.,0.,0.));
#432=CARTESIAN_POINT('',(-40.,4.,-49.));
#433=CARTESIAN_POINT('Origin',(-70.,0.,-69.));
#434=CARTESIAN_POINT('',(-77.,0.,-69.));
#435=CARTESIAN_POINT('Origin',(-70.,0.,-69.));
#436=CARTESIAN_POINT('',(-77.,4.,-69.));
#437=CARTESIAN_POINT('',(-77.,0.,-69.));
#438=CARTESIAN_POINT('Origin',(-70.,4.,-69.));
#439=CARTESIAN_POINT('Origin',(-20.,0.,-118.));
#440=CARTESIAN_POINT('',(-27.,0.,-118.));
#441=CARTESIAN_POINT('Origin',(-20.,0.,-118.));
#442=CARTESIAN_POINT('',(-27.,4.,-118.));
#443=CARTESIAN_POINT('',(-27.,0.,-118.));
#444=CARTESIAN_POINT('Origin',(-20.,4.,-118.));
#445=CARTESIAN_POINT('Origin',(-20.,0.,-69.));
#446=CARTESIAN_POINT('',(-27.,0.,-69.));
#447=CARTESIAN_POINT('Origin',(-20.,0.,-69.));
#448=CARTESIAN_POINT('',(-27.,4.,-69.));
#449=CARTESIAN_POINT('',(-27.,0.,-69.));
#450=CARTESIAN_POINT('Origin',(-20.,4.,-69.));
#451=CARTESIAN_POINT('Origin',(-20.,0.,-20.));
#452=CARTESIAN_POINT('',(-27.,0.,-20.));
#453=CARTESIAN_POINT('Origin',(-20.,0.,-20.));
#454=CARTESIAN_POINT('',(-27.,4.,-20.));
#455=CARTESIAN_POINT('',(-27.,0.,-20.));
#456=CARTESIAN_POINT('Origin',(-20.,4.,-20.));
#457=CARTESIAN_POINT('Origin',(0.,0.,0.));
#458=CARTESIAN_POINT('',(0.,4.,0.));
#459=CARTESIAN_POINT('',(-40.,4.,0.));
#460=CARTESIAN_POINT('',(0.,0.,0.));
#461=CARTESIAN_POINT('',(-40.,0.,0.));
#462=CARTESIAN_POINT('',(0.,0.,0.));
#463=CARTESIAN_POINT('Origin',(-90.,0.,-49.));
#464=CARTESIAN_POINT('',(-90.,4.,-89.));
#465=CARTESIAN_POINT('',(-90.,0.,-89.));
#466=CARTESIAN_POINT('Origin',(-40.,0.,-138.));
#467=CARTESIAN_POINT('',(0.,4.,-138.));
#468=CARTESIAN_POINT('',(0.,4.,-138.));
#469=CARTESIAN_POINT('',(0.,0.,-138.));
#470=CARTESIAN_POINT('',(0.,0.,-138.));
#471=CARTESIAN_POINT('',(0.,0.,-138.));
#472=CARTESIAN_POINT('Origin',(0.,0.,-138.));
#473=CARTESIAN_POINT('',(0.,4.,0.));
#474=CARTESIAN_POINT('',(0.,0.,0.));
#475=CARTESIAN_POINT('Origin',(-34.2543859649123,0.,-69.));
#476=CARTESIAN_POINT('Origin',(-34.2543859649123,4.,-69.));
#477=UNCERTAINTY_MEASURE_WITH_UNIT(LENGTH_MEASURE(0.01),#481,
'DISTANCE_ACCURACY_VALUE',
'Maximum model space distance between geometric entities at asserted c
onnectivities');
#478=UNCERTAINTY_MEASURE_WITH_UNIT(LENGTH_MEASURE(0.01),#481,
'DISTANCE_ACCURACY_VALUE',
'Maximum model space distance between geometric entities at asserted c
onnectivities');
#479=(
GEOMETRIC_REPRESENTATION_CONTEXT(3)
GLOBAL_UNCERTAINTY_ASSIGNED_CONTEXT((#477))
GLOBAL_UNIT_ASSIGNED_CONTEXT((#481,#483,#484))
REPRESENTATION_CONTEXT('','3D')
);
#480=(
GEOMETRIC_REPRESENTATION_CONTEXT(3)
GLOBAL_UNCERTAINTY_ASSIGNED_CONTEXT((#478))
GLOBAL_UNIT_ASSIGNED_CONTEXT((#481,#483,#484))
REPRESENTATION_CONTEXT('','3D')
);
#481=(
LENGTH_UNIT()
NAMED_UNIT(*)
SI_UNIT(.MILLI.,.METRE.)
);
#482=(
LENGTH_UNIT()
NAMED_UNIT(*)
SI_UNIT(.CENTI.,.METRE.)
);
#483=(
NAMED_UNIT(*)
PLANE_ANGLE_UNIT()
SI_UNIT($,.RADIAN.)
);
#484=(
NAMED_UNIT(*)
SI_UNIT($,.STERADIAN.)
SOLID_ANGLE_UNIT()
);
#485=SHAPE_DEFINITION_REPRESENTATION(#486,#487);
#486=PRODUCT_DEFINITION_SHAPE('',$,#489);
#487=SHAPE_REPRESENTATION('',(#305),#479);
#488=PRODUCT_DEFINITION_CONTEXT('part definition',#493,'design');
#489=PRODUCT_DEFINITION(
'\X2\0421043E043504340438043D043804420435043B044C043D0430044F\X0\ \X2\043F043B0430044104420438043D0430\X0\ 
\X2\0422\X0\-\X2\043E0431044004300437043D0430044F\X0\ (4 \X2\043E0442043204350440044104420438044F\X0\)
, UST','UST',#490,#488);
#490=PRODUCT_DEFINITION_FORMATION('',$,#495);
#491=PRODUCT_RELATED_PRODUCT_CATEGORY('UST','UST',(#495));
#492=APPLICATION_PROTOCOL_DEFINITION('international standard',
'automotive_design',2009,#493);
#493=APPLICATION_CONTEXT(
'Core Data for Automotive Mechanical Design Process');
#494=PRODUCT_CONTEXT('part definition',#493,'mechanical');
#495=PRODUCT(
'\X2\0421043E043504340438043D043804420435043B044C043D0430044F\X0\ \X2\043F043B0430044104420438043D0430\X0\ 
\X2\0422\X0\-\X2\043E0431044004300437043D0430044F\X0\ (4 \X2\043E0442043204350440044104420438044F\X0\)
, UST','UST',$,(#494));
#496=PRESENTATION_STYLE_ASSIGNMENT((#497));
#497=SURFACE_STYLE_USAGE(.BOTH.,#500);
#498=SURFACE_STYLE_RENDERING_WITH_PROPERTIES($,#504,(#499));
#499=SURFACE_STYLE_TRANSPARENT(0.);
#500=SURFACE_SIDE_STYLE('',(#501,#498));
#501=SURFACE_STYLE_FILL_AREA(#502);
#502=FILL_AREA_STYLE('',(#503));
#503=FILL_AREA_STYLE_COLOUR('',#504);
#504=COLOUR_RGB('',0.745098039215686,0.737254901960784,0.729411764705882);
ENDSEC;
END-ISO-10303-21;
