ISO-10303-21;
HEADER;
/* Generated by software containing ST-Developer
 * from STEP Tools, Inc. (www.steptools.com) 
 */

FILE_DESCRIPTION(
/* description */ (''),
/* implementation_level */ '2;1');

FILE_NAME(
/* name */ 'OP120x100.ipt.stp',
/* time_stamp */ '2023-05-17T09:47:33+03:00',
/* author */ ('\X2\042004420438044904350432\X0\ \X2\0410\X0\.\X2\041E\X0\.'),

/* organization */ (''),
/* preprocessor_version */ 'ST-DEVELOPER v19.2',
/* originating_system */ 'Autodesk Inventor 2023',
/* authorisation */ '');

FILE_SCHEMA (('AUTOMOTIVE_DESIGN { 1 0 10303 214 3 1 1 }'));
ENDSEC;

DATA;
#10=MECHANICAL_DESIGN_GEOMETRIC_PRESENTATION_REPRESENTATION('',(#144,#145,
#146,#147,#148,#149,#150,#151,#152),#278);
#11=SHAPE_REPRESENTATION_RELATIONSHIP('SRR','None',#285,#12);
#12=ADVANCED_BREP_SHAPE_REPRESENTATION('',(#13),#277);
#13=MANIFOLD_SOLID_BREP('\X2\04220432043504400434043E0435\X0\ \X2\04420435043B043E\X0\1',
#161);
#14=CYLINDRICAL_SURFACE('',#191,5.5);
#15=CYLINDRICAL_SURFACE('',#193,5.5);
#16=FACE_BOUND('',#37,.T.);
#17=FACE_BOUND('',#38,.T.);
#18=FACE_BOUND('',#42,.T.);
#19=FACE_BOUND('',#43,.T.);
#20=CIRCLE('',#189,5.5);
#21=CIRCLE('',#190,5.5);
#22=CIRCLE('',#192,5.5);
#23=CIRCLE('',#194,5.5);
#24=FACE_OUTER_BOUND('',#32,.T.);
#25=FACE_OUTER_BOUND('',#33,.T.);
#26=FACE_OUTER_BOUND('',#34,.T.);
#27=FACE_OUTER_BOUND('',#35,.T.);
#28=FACE_OUTER_BOUND('',#36,.T.);
#29=FACE_OUTER_BOUND('',#39,.T.);
#30=FACE_OUTER_BOUND('',#40,.T.);
#31=FACE_OUTER_BOUND('',#41,.T.);
#32=EDGE_LOOP('',(#102,#103,#104,#105));
#33=EDGE_LOOP('',(#106,#107,#108,#109));
#34=EDGE_LOOP('',(#110,#111,#112,#113));
#35=EDGE_LOOP('',(#114,#115,#116,#117));
#36=EDGE_LOOP('',(#118,#119,#120,#121));
#37=EDGE_LOOP('',(#122));
#38=EDGE_LOOP('',(#123));
#39=EDGE_LOOP('',(#124,#125,#126,#127));
#40=EDGE_LOOP('',(#128,#129,#130,#131));
#41=EDGE_LOOP('',(#132,#133,#134,#135));
#42=EDGE_LOOP('',(#136));
#43=EDGE_LOOP('',(#137));
#44=LINE('',#240,#58);
#45=LINE('',#242,#59);
#46=LINE('',#244,#60);
#47=LINE('',#245,#61);
#48=LINE('',#248,#62);
#49=LINE('',#250,#63);
#50=LINE('',#251,#64);
#51=LINE('',#254,#65);
#52=LINE('',#256,#66);
#53=LINE('',#257,#67);
#54=LINE('',#259,#68);
#55=LINE('',#260,#69);
#56=LINE('',#269,#70);
#57=LINE('',#273,#71);
#58=VECTOR('',#200,10.);
#59=VECTOR('',#201,10.);
#60=VECTOR('',#202,10.);
#61=VECTOR('',#203,10.);
#62=VECTOR('',#206,10.);
#63=VECTOR('',#207,10.);
#64=VECTOR('',#208,10.);
#65=VECTOR('',#211,10.);
#66=VECTOR('',#212,10.);
#67=VECTOR('',#213,10.);
#68=VECTOR('',#216,10.);
#69=VECTOR('',#217,10.);
#70=VECTOR('',#228,5.5);
#71=VECTOR('',#233,5.5);
#72=VERTEX_POINT('',#238);
#73=VERTEX_POINT('',#239);
#74=VERTEX_POINT('',#241);
#75=VERTEX_POINT('',#243);
#76=VERTEX_POINT('',#247);
#77=VERTEX_POINT('',#249);
#78=VERTEX_POINT('',#253);
#79=VERTEX_POINT('',#255);
#80=VERTEX_POINT('',#262);
#81=VERTEX_POINT('',#264);
#82=VERTEX_POINT('',#267);
#83=VERTEX_POINT('',#271);
#84=EDGE_CURVE('',#72,#73,#44,.T.);
#85=EDGE_CURVE('',#72,#74,#45,.T.);
#86=EDGE_CURVE('',#74,#75,#46,.T.);
#87=EDGE_CURVE('',#73,#75,#47,.T.);
#88=EDGE_CURVE('',#75,#76,#48,.T.);
#89=EDGE_CURVE('',#77,#76,#49,.T.);
#90=EDGE_CURVE('',#73,#77,#50,.T.);
#91=EDGE_CURVE('',#76,#78,#51,.T.);
#92=EDGE_CURVE('',#79,#78,#52,.T.);
#93=EDGE_CURVE('',#77,#79,#53,.T.);
#94=EDGE_CURVE('',#78,#74,#54,.T.);
#95=EDGE_CURVE('',#79,#72,#55,.T.);
#96=EDGE_CURVE('',#80,#80,#20,.T.);
#97=EDGE_CURVE('',#81,#81,#21,.T.);
#98=EDGE_CURVE('',#82,#82,#22,.T.);
#99=EDGE_CURVE('',#82,#80,#56,.T.);
#100=EDGE_CURVE('',#83,#83,#23,.T.);
#101=EDGE_CURVE('',#83,#81,#57,.T.);
#102=ORIENTED_EDGE('',*,*,#84,.F.);
#103=ORIENTED_EDGE('',*,*,#85,.T.);
#104=ORIENTED_EDGE('',*,*,#86,.T.);
#105=ORIENTED_EDGE('',*,*,#87,.F.);
#106=ORIENTED_EDGE('',*,*,#87,.T.);
#107=ORIENTED_EDGE('',*,*,#88,.T.);
#108=ORIENTED_EDGE('',*,*,#89,.F.);
#109=ORIENTED_EDGE('',*,*,#90,.F.);
#110=ORIENTED_EDGE('',*,*,#89,.T.);
#111=ORIENTED_EDGE('',*,*,#91,.T.);
#112=ORIENTED_EDGE('',*,*,#92,.F.);
#113=ORIENTED_EDGE('',*,*,#93,.F.);
#114=ORIENTED_EDGE('',*,*,#92,.T.);
#115=ORIENTED_EDGE('',*,*,#94,.T.);
#116=ORIENTED_EDGE('',*,*,#85,.F.);
#117=ORIENTED_EDGE('',*,*,#95,.F.);
#118=ORIENTED_EDGE('',*,*,#84,.T.);
#119=ORIENTED_EDGE('',*,*,#90,.T.);
#120=ORIENTED_EDGE('',*,*,#93,.T.);
#121=ORIENTED_EDGE('',*,*,#95,.T.);
#122=ORIENTED_EDGE('',*,*,#96,.T.);
#123=ORIENTED_EDGE('',*,*,#97,.T.);
#124=ORIENTED_EDGE('',*,*,#98,.F.);
#125=ORIENTED_EDGE('',*,*,#99,.T.);
#126=ORIENTED_EDGE('',*,*,#96,.F.);
#127=ORIENTED_EDGE('',*,*,#99,.F.);
#128=ORIENTED_EDGE('',*,*,#100,.F.);
#129=ORIENTED_EDGE('',*,*,#101,.T.);
#130=ORIENTED_EDGE('',*,*,#97,.F.);
#131=ORIENTED_EDGE('',*,*,#101,.F.);
#132=ORIENTED_EDGE('',*,*,#86,.F.);
#133=ORIENTED_EDGE('',*,*,#94,.F.);
#134=ORIENTED_EDGE('',*,*,#91,.F.);
#135=ORIENTED_EDGE('',*,*,#88,.F.);
#136=ORIENTED_EDGE('',*,*,#98,.T.);
#137=ORIENTED_EDGE('',*,*,#100,.T.);
#138=PLANE('',#184);
#139=PLANE('',#185);
#140=PLANE('',#186);
#141=PLANE('',#187);
#142=PLANE('',#188);
#143=PLANE('',#195);
#144=STYLED_ITEM('',(#294),#153);
#145=STYLED_ITEM('',(#294),#154);
#146=STYLED_ITEM('',(#294),#155);
#147=STYLED_ITEM('',(#294),#156);
#148=STYLED_ITEM('',(#294),#157);
#149=STYLED_ITEM('',(#294),#158);
#150=STYLED_ITEM('',(#294),#159);
#151=STYLED_ITEM('',(#294),#160);
#152=STYLED_ITEM('',(#294),#13);
#153=ADVANCED_FACE('',(#24),#138,.T.);
#154=ADVANCED_FACE('',(#25),#139,.T.);
#155=ADVANCED_FACE('',(#26),#140,.T.);
#156=ADVANCED_FACE('',(#27),#141,.T.);
#157=ADVANCED_FACE('',(#28,#16,#17),#142,.F.);
#158=ADVANCED_FACE('',(#29),#14,.F.);
#159=ADVANCED_FACE('',(#30),#15,.F.);
#160=ADVANCED_FACE('',(#31,#18,#19),#143,.T.);
#161=CLOSED_SHELL('',(#153,#154,#155,#156,#157,#158,#159,#160));
#162=DERIVED_UNIT_ELEMENT(#165,1.);
#163=DERIVED_UNIT_ELEMENT(#280,-3.);
#164=DIMENSIONAL_EXPONENTS(0.,1.,0.,0.,0.,0.,0.);
#165=(
CONVERSION_BASED_UNIT('gram',#167)
MASS_UNIT()
NAMED_UNIT(#164)
);
#166=(
MASS_UNIT()
NAMED_UNIT(*)
SI_UNIT(.KILO.,.GRAM.)
);
#167=MASS_MEASURE_WITH_UNIT(MASS_MEASURE(0.001),#166);
#168=DERIVED_UNIT((#162,#163));
#169=MEASURE_REPRESENTATION_ITEM('density measure',
POSITIVE_RATIO_MEASURE(1.),#168);
#170=PROPERTY_DEFINITION_REPRESENTATION(#175,#172);
#171=PROPERTY_DEFINITION_REPRESENTATION(#176,#173);
#172=REPRESENTATION('material name',(#174),#277);
#173=REPRESENTATION('density',(#169),#277);
#174=DESCRIPTIVE_REPRESENTATION_ITEM('\X2\04220438043F043E0432044B0435\X0\',
'\X2\04220438043F043E0432044B0435\X0\');
#175=PROPERTY_DEFINITION('material property','material name',#287);
#176=PROPERTY_DEFINITION('material property','density of part',#287);
#177=DATE_TIME_ROLE('creation_date');
#178=APPLIED_DATE_AND_TIME_ASSIGNMENT(#179,#177,(#287));
#179=DATE_AND_TIME(#180,#181);
#180=CALENDAR_DATE(2019,25,4);
#181=LOCAL_TIME(0,0,0.,#182);
#182=COORDINATED_UNIVERSAL_TIME_OFFSET(0,0,.BEHIND.);
#183=AXIS2_PLACEMENT_3D('',#236,#196,#197);
#184=AXIS2_PLACEMENT_3D('',#237,#198,#199);
#185=AXIS2_PLACEMENT_3D('',#246,#204,#205);
#186=AXIS2_PLACEMENT_3D('',#252,#209,#210);
#187=AXIS2_PLACEMENT_3D('',#258,#214,#215);
#188=AXIS2_PLACEMENT_3D('',#261,#218,#219);
#189=AXIS2_PLACEMENT_3D('',#263,#220,#221);
#190=AXIS2_PLACEMENT_3D('',#265,#222,#223);
#191=AXIS2_PLACEMENT_3D('',#266,#224,#225);
#192=AXIS2_PLACEMENT_3D('',#268,#226,#227);
#193=AXIS2_PLACEMENT_3D('',#270,#229,#230);
#194=AXIS2_PLACEMENT_3D('',#272,#231,#232);
#195=AXIS2_PLACEMENT_3D('',#274,#234,#235);
#196=DIRECTION('axis',(0.,0.,1.));
#197=DIRECTION('refdir',(1.,0.,0.));
#198=DIRECTION('center_axis',(0.,0.,1.));
#199=DIRECTION('ref_axis',(1.,0.,0.));
#200=DIRECTION('',(-1.,0.,0.));
#201=DIRECTION('',(0.,1.,0.));
#202=DIRECTION('',(-1.,0.,0.));
#203=DIRECTION('',(0.,1.,0.));
#204=DIRECTION('center_axis',(-1.,0.,-1.77635683940025E-16));
#205=DIRECTION('ref_axis',(-1.77635683940025E-16,0.,1.));
#206=DIRECTION('',(1.77635683940025E-16,0.,-1.));
#207=DIRECTION('',(0.,1.,0.));
#208=DIRECTION('',(1.77635683940025E-16,0.,-1.));
#209=DIRECTION('center_axis',(0.,0.,-1.));
#210=DIRECTION('ref_axis',(-1.,0.,0.));
#211=DIRECTION('',(1.,0.,0.));
#212=DIRECTION('',(0.,1.,0.));
#213=DIRECTION('',(1.,0.,0.));
#214=DIRECTION('center_axis',(1.,0.,2.66453525910038E-16));
#215=DIRECTION('ref_axis',(2.66453525910038E-16,0.,-1.));
#216=DIRECTION('',(-2.66453525910038E-16,0.,1.));
#217=DIRECTION('',(-2.66453525910038E-16,0.,1.));
#218=DIRECTION('center_axis',(0.,1.,0.));
#219=DIRECTION('ref_axis',(0.,0.,1.));
#220=DIRECTION('center_axis',(0.,1.,0.));
#221=DIRECTION('ref_axis',(-1.,0.,0.));
#222=DIRECTION('center_axis',(0.,1.,0.));
#223=DIRECTION('ref_axis',(-1.,0.,0.));
#224=DIRECTION('center_axis',(0.,-1.,0.));
#225=DIRECTION('ref_axis',(-1.,0.,0.));
#226=DIRECTION('center_axis',(0.,-1.,0.));
#227=DIRECTION('ref_axis',(-1.,0.,0.));
#228=DIRECTION('',(0.,-1.,0.));
#229=DIRECTION('center_axis',(0.,-1.,0.));
#230=DIRECTION('ref_axis',(-1.,0.,0.));
#231=DIRECTION('center_axis',(0.,-1.,0.));
#232=DIRECTION('ref_axis',(-1.,0.,0.));
#233=DIRECTION('',(0.,-1.,0.));
#234=DIRECTION('center_axis',(0.,1.,0.));
#235=DIRECTION('ref_axis',(0.,0.,1.));
#236=CARTESIAN_POINT('',(0.,0.,0.));
#237=CARTESIAN_POINT('Origin',(59.9999999999999,0.,49.9999999999999));
#238=CARTESIAN_POINT('',(59.9999999999999,0.,49.9999999999999));
#239=CARTESIAN_POINT('',(-60.0000000000001,0.,49.9999999999999));
#240=CARTESIAN_POINT('',(59.9999999999999,0.,49.9999999999999));
#241=CARTESIAN_POINT('',(59.9999999999999,4.,49.9999999999999));
#242=CARTESIAN_POINT('',(59.9999999999999,0.,49.9999999999999));
#243=CARTESIAN_POINT('',(-60.0000000000001,4.,49.9999999999999));
#244=CARTESIAN_POINT('',(59.9999999999999,4.,49.9999999999999));
#245=CARTESIAN_POINT('',(-60.0000000000001,0.,49.9999999999999));
#246=CARTESIAN_POINT('Origin',(-60.0000000000001,0.,49.9999999999999));
#247=CARTESIAN_POINT('',(-60.0000000000001,4.,-50.0000000000001));
#248=CARTESIAN_POINT('',(-60.0000000000001,4.,49.9999999999999));
#249=CARTESIAN_POINT('',(-60.0000000000001,0.,-50.0000000000001));
#250=CARTESIAN_POINT('',(-60.0000000000001,0.,-50.0000000000001));
#251=CARTESIAN_POINT('',(-60.0000000000001,0.,49.9999999999999));
#252=CARTESIAN_POINT('Origin',(-60.0000000000001,0.,-50.0000000000001));
#253=CARTESIAN_POINT('',(59.9999999999999,4.,-50.0000000000001));
#254=CARTESIAN_POINT('',(-60.0000000000001,4.,-50.0000000000001));
#255=CARTESIAN_POINT('',(59.9999999999999,0.,-50.0000000000001));
#256=CARTESIAN_POINT('',(59.9999999999999,0.,-50.0000000000001));
#257=CARTESIAN_POINT('',(-60.0000000000001,0.,-50.0000000000001));
#258=CARTESIAN_POINT('Origin',(59.9999999999999,0.,-50.0000000000001));
#259=CARTESIAN_POINT('',(59.9999999999999,4.,-50.0000000000001));
#260=CARTESIAN_POINT('',(59.9999999999999,0.,-50.0000000000001));
#261=CARTESIAN_POINT('Origin',(-1.04360964314765E-13,0.,-1.4331969954252E-13));
#262=CARTESIAN_POINT('',(5.49999999999988,0.,24.9999999999999));
#263=CARTESIAN_POINT('Origin',(-1.15463194561016E-13,0.,24.9999999999999));
#264=CARTESIAN_POINT('',(5.4999999999999,0.,-25.0000000000001));
#265=CARTESIAN_POINT('Origin',(-9.76996261670138E-14,0.,-25.0000000000001));
#266=CARTESIAN_POINT('Origin',(-1.15463194561016E-13,4.,24.9999999999999));
#267=CARTESIAN_POINT('',(5.49999999999988,4.,24.9999999999999));
#268=CARTESIAN_POINT('Origin',(-1.15463194561016E-13,4.,24.9999999999999));
#269=CARTESIAN_POINT('',(5.49999999999988,4.,24.9999999999999));
#270=CARTESIAN_POINT('Origin',(-9.76996261670138E-14,4.,-25.0000000000001));
#271=CARTESIAN_POINT('',(5.4999999999999,4.,-25.0000000000001));
#272=CARTESIAN_POINT('Origin',(-9.76996261670138E-14,4.,-25.0000000000001));
#273=CARTESIAN_POINT('',(5.4999999999999,4.,-25.0000000000001));
#274=CARTESIAN_POINT('Origin',(-1.04360964314765E-13,4.,-1.4331969954252E-13));
#275=UNCERTAINTY_MEASURE_WITH_UNIT(LENGTH_MEASURE(0.01),#279,
'DISTANCE_ACCURACY_VALUE',
'Maximum model space distance between geometric entities at asserted c
onnectivities');
#276=UNCERTAINTY_MEASURE_WITH_UNIT(LENGTH_MEASURE(0.01),#279,
'DISTANCE_ACCURACY_VALUE',
'Maximum model space distance between geometric entities at asserted c
onnectivities');
#277=(
GEOMETRIC_REPRESENTATION_CONTEXT(3)
GLOBAL_UNCERTAINTY_ASSIGNED_CONTEXT((#275))
GLOBAL_UNIT_ASSIGNED_CONTEXT((#279,#281,#282))
REPRESENTATION_CONTEXT('','3D')
);
#278=(
GEOMETRIC_REPRESENTATION_CONTEXT(3)
GLOBAL_UNCERTAINTY_ASSIGNED_CONTEXT((#276))
GLOBAL_UNIT_ASSIGNED_CONTEXT((#279,#281,#282))
REPRESENTATION_CONTEXT('','3D')
);
#279=(
LENGTH_UNIT()
NAMED_UNIT(*)
SI_UNIT(.MILLI.,.METRE.)
);
#280=(
LENGTH_UNIT()
NAMED_UNIT(*)
SI_UNIT(.CENTI.,.METRE.)
);
#281=(
NAMED_UNIT(*)
PLANE_ANGLE_UNIT()
SI_UNIT($,.RADIAN.)
);
#282=(
NAMED_UNIT(*)
SI_UNIT($,.STERADIAN.)
SOLID_ANGLE_UNIT()
);
#283=SHAPE_DEFINITION_REPRESENTATION(#284,#285);
#284=PRODUCT_DEFINITION_SHAPE('',$,#287);
#285=SHAPE_REPRESENTATION('',(#183),#277);
#286=PRODUCT_DEFINITION_CONTEXT('part definition',#291,'design');
#287=PRODUCT_DEFINITION(
'\X2\041E043F043E0440043D0430044F\X0\ \X2\043F043B0430044104420438043D0430\X0\ 
\X2\0434043B044F\X0\ \X2\043E0433043D043504410442043E0439043A043E0439\X0\ 
\X2\043F0435044004350433043E0440043E0434043A0438\X0\ 120\X2\0445\X0\10
0\X2\0445\X0\4,0 \X2\043C043C\X0\, \X2\041E043F043E0440043D0430044F\X0\ 
\X2\043F043B0430044104420438043D0430\X0\ \X2\0434043B044F\X0\ \X2\043E0433043D043504410442043E0439043A043E0439\X0\ 
\X2\043F0435044004350433043E0440043E0434043A0438\X0\ 120\X2\0445\X0\10
0\X2\0445\X0\4,0 \X2\043C043C\X0\, OP120x100','OP120x100',#288,#286);
#288=PRODUCT_DEFINITION_FORMATION('',$,#293);
#289=PRODUCT_RELATED_PRODUCT_CATEGORY('OP120x100','OP120x100',(#293));
#290=APPLICATION_PROTOCOL_DEFINITION('international standard',
'automotive_design',2009,#291);
#291=APPLICATION_CONTEXT(
'Core Data for Automotive Mechanical Design Process');
#292=PRODUCT_CONTEXT('part definition',#291,'mechanical');
#293=PRODUCT(
'\X2\041E043F043E0440043D0430044F\X0\ \X2\043F043B0430044104420438043D0430\X0\ 
\X2\0434043B044F\X0\ \X2\043E0433043D043504410442043E0439043A043E0439\X0\ 
\X2\043F0435044004350433043E0440043E0434043A0438\X0\ 120\X2\0445\X0\10
0\X2\0445\X0\4,0 \X2\043C043C\X0\, \X2\041E043F043E0440043D0430044F\X0\ 
\X2\043F043B0430044104420438043D0430\X0\ \X2\0434043B044F\X0\ \X2\043E0433043D043504410442043E0439043A043E0439\X0\ 
\X2\043F0435044004350433043E0440043E0434043A0438\X0\ 120\X2\0445\X0\10
0\X2\0445\X0\4,0 \X2\043C043C\X0\, OP120x100','OP120x100',$,(#292));
#294=PRESENTATION_STYLE_ASSIGNMENT((#295));
#295=SURFACE_STYLE_USAGE(.BOTH.,#298);
#296=SURFACE_STYLE_RENDERING_WITH_PROPERTIES($,#302,(#297));
#297=SURFACE_STYLE_TRANSPARENT(0.);
#298=SURFACE_SIDE_STYLE('',(#299,#296));
#299=SURFACE_STYLE_FILL_AREA(#300);
#300=FILL_AREA_STYLE('',(#301));
#301=FILL_AREA_STYLE_COLOUR('',#302);
#302=COLOUR_RGB('',0.745098039215686,0.737254901960784,0.729411764705882);
ENDSEC;
END-ISO-10303-21;
