ISO-10303-21;
HEADER;
/* Generated by software containing ST-Developer
 * from STEP Tools, Inc. (www.steptools.com) 
 */

FILE_DESCRIPTION(
/* description */ (''),
/* implementation_level */ '2;1');

FILE_NAME(
/* name */ '',
/* time_stamp */ '2023-05-17T15:21:20+03:00',
/* author */ ('\X2\042004420438044904350432\X0\ \X2\0410\X0\.\X2\041E\X0\.'),

/* organization */ (''),
/* preprocessor_version */ 'ST-DEVELOPER v19.2',
/* originating_system */ 'Autodesk Inventor 2023',
/* authorisation */ '');

FILE_SCHEMA (('AUTOMOTIVE_DESIGN { 1 0 10303 214 3 1 1 }'));
ENDSEC;

DATA;
#10=MECHANICAL_DESIGN_GEOMETRIC_PRESENTATION_REPRESENTATION('',(#108,#109,
#110,#111,#112,#113,#114,#115),#244);
#11=SHAPE_REPRESENTATION_RELATIONSHIP('SRR','None',#251,#12);
#12=ADVANCED_BREP_SHAPE_REPRESENTATION('',(#13),#243);
#13=MANIFOLD_SOLID_BREP('\X2\04220432043504400434043E0435\X0\ \X2\04420435043B043E\X0\1',
#123);
#14=PLANE('',#163);
#15=PLANE('',#164);
#16=TOROIDAL_SURFACE('',#150,9.99999999999999,4.);
#17=TOROIDAL_SURFACE('',#157,10.,4.);
#18=FACE_OUTER_BOUND('',#25,.T.);
#19=FACE_OUTER_BOUND('',#26,.T.);
#20=FACE_OUTER_BOUND('',#27,.T.);
#21=FACE_OUTER_BOUND('',#28,.T.);
#22=FACE_OUTER_BOUND('',#29,.T.);
#23=FACE_OUTER_BOUND('',#30,.T.);
#24=FACE_OUTER_BOUND('',#31,.T.);
#25=EDGE_LOOP('',(#75,#76,#77,#78,#79));
#26=EDGE_LOOP('',(#80,#81,#82,#83,#84,#85));
#27=EDGE_LOOP('',(#86,#87,#88,#89,#90,#91));
#28=EDGE_LOOP('',(#92,#93,#94,#95,#96,#97));
#29=EDGE_LOOP('',(#98,#99,#100,#101,#102));
#30=EDGE_LOOP('',(#103));
#31=EDGE_LOOP('',(#104));
#32=LINE('',#213,#35);
#33=LINE('',#225,#36);
#34=LINE('',#237,#37);
#35=VECTOR('',#171,4.);
#36=VECTOR('',#186,4.);
#37=VECTOR('',#201,4.);
#38=CIRCLE('',#147,4.);
#39=CIRCLE('',#148,4.);
#40=CIRCLE('',#149,4.);
#41=CIRCLE('',#151,6.);
#42=CIRCLE('',#152,4.);
#43=CIRCLE('',#153,4.);
#44=CIRCLE('',#155,4.);
#45=CIRCLE('',#156,4.);
#46=CIRCLE('',#158,6.);
#47=CIRCLE('',#159,4.);
#48=CIRCLE('',#160,4.);
#49=CIRCLE('',#162,4.);
#50=VERTEX_POINT('',#210);
#51=VERTEX_POINT('',#212);
#52=VERTEX_POINT('',#214);
#53=VERTEX_POINT('',#218);
#54=VERTEX_POINT('',#220);
#55=VERTEX_POINT('',#224);
#56=VERTEX_POINT('',#226);
#57=VERTEX_POINT('',#230);
#58=VERTEX_POINT('',#232);
#59=VERTEX_POINT('',#236);
#60=EDGE_CURVE('',#50,#50,#38,.T.);
#61=EDGE_CURVE('',#50,#51,#32,.T.);
#62=EDGE_CURVE('',#51,#52,#39,.T.);
#63=EDGE_CURVE('',#52,#51,#40,.T.);
#64=EDGE_CURVE('',#52,#53,#41,.T.);
#65=EDGE_CURVE('',#53,#54,#42,.T.);
#66=EDGE_CURVE('',#54,#53,#43,.T.);
#67=EDGE_CURVE('',#54,#55,#33,.T.);
#68=EDGE_CURVE('',#55,#56,#44,.T.);
#69=EDGE_CURVE('',#56,#55,#45,.T.);
#70=EDGE_CURVE('',#56,#57,#46,.T.);
#71=EDGE_CURVE('',#57,#58,#47,.T.);
#72=EDGE_CURVE('',#58,#57,#48,.T.);
#73=EDGE_CURVE('',#58,#59,#34,.T.);
#74=EDGE_CURVE('',#59,#59,#49,.T.);
#75=ORIENTED_EDGE('',*,*,#60,.F.);
#76=ORIENTED_EDGE('',*,*,#61,.T.);
#77=ORIENTED_EDGE('',*,*,#62,.T.);
#78=ORIENTED_EDGE('',*,*,#63,.T.);
#79=ORIENTED_EDGE('',*,*,#61,.F.);
#80=ORIENTED_EDGE('',*,*,#62,.F.);
#81=ORIENTED_EDGE('',*,*,#63,.F.);
#82=ORIENTED_EDGE('',*,*,#64,.T.);
#83=ORIENTED_EDGE('',*,*,#65,.T.);
#84=ORIENTED_EDGE('',*,*,#66,.T.);
#85=ORIENTED_EDGE('',*,*,#64,.F.);
#86=ORIENTED_EDGE('',*,*,#66,.F.);
#87=ORIENTED_EDGE('',*,*,#67,.T.);
#88=ORIENTED_EDGE('',*,*,#68,.T.);
#89=ORIENTED_EDGE('',*,*,#69,.T.);
#90=ORIENTED_EDGE('',*,*,#67,.F.);
#91=ORIENTED_EDGE('',*,*,#65,.F.);
#92=ORIENTED_EDGE('',*,*,#68,.F.);
#93=ORIENTED_EDGE('',*,*,#69,.F.);
#94=ORIENTED_EDGE('',*,*,#70,.T.);
#95=ORIENTED_EDGE('',*,*,#71,.T.);
#96=ORIENTED_EDGE('',*,*,#72,.T.);
#97=ORIENTED_EDGE('',*,*,#70,.F.);
#98=ORIENTED_EDGE('',*,*,#72,.F.);
#99=ORIENTED_EDGE('',*,*,#73,.T.);
#100=ORIENTED_EDGE('',*,*,#74,.T.);
#101=ORIENTED_EDGE('',*,*,#73,.F.);
#102=ORIENTED_EDGE('',*,*,#71,.F.);
#103=ORIENTED_EDGE('',*,*,#60,.T.);
#104=ORIENTED_EDGE('',*,*,#74,.F.);
#105=CYLINDRICAL_SURFACE('',#146,4.);
#106=CYLINDRICAL_SURFACE('',#154,4.);
#107=CYLINDRICAL_SURFACE('',#161,4.);
#108=STYLED_ITEM('',(#260),#116);
#109=STYLED_ITEM('',(#260),#117);
#110=STYLED_ITEM('',(#260),#118);
#111=STYLED_ITEM('',(#260),#119);
#112=STYLED_ITEM('',(#260),#120);
#113=STYLED_ITEM('',(#260),#121);
#114=STYLED_ITEM('',(#260),#122);
#115=STYLED_ITEM('',(#260),#13);
#116=ADVANCED_FACE('',(#18),#105,.T.);
#117=ADVANCED_FACE('',(#19),#16,.T.);
#118=ADVANCED_FACE('',(#20),#106,.T.);
#119=ADVANCED_FACE('',(#21),#17,.T.);
#120=ADVANCED_FACE('',(#22),#107,.T.);
#121=ADVANCED_FACE('',(#23),#14,.T.);
#122=ADVANCED_FACE('',(#24),#15,.F.);
#123=CLOSED_SHELL('',(#116,#117,#118,#119,#120,#121,#122));
#124=DERIVED_UNIT_ELEMENT(#127,1.);
#125=DERIVED_UNIT_ELEMENT(#246,-3.);
#126=DIMENSIONAL_EXPONENTS(0.,1.,0.,0.,0.,0.,0.);
#127=(
CONVERSION_BASED_UNIT('gram',#129)
MASS_UNIT()
NAMED_UNIT(#126)
);
#128=(
MASS_UNIT()
NAMED_UNIT(*)
SI_UNIT(.KILO.,.GRAM.)
);
#129=MASS_MEASURE_WITH_UNIT(MASS_MEASURE(0.001),#128);
#130=DERIVED_UNIT((#124,#125));
#131=MEASURE_REPRESENTATION_ITEM('density measure',
POSITIVE_RATIO_MEASURE(7.85),#130);
#132=PROPERTY_DEFINITION_REPRESENTATION(#137,#134);
#133=PROPERTY_DEFINITION_REPRESENTATION(#138,#135);
#134=REPRESENTATION('material name',(#136),#243);
#135=REPRESENTATION('density',(#131),#243);
#136=DESCRIPTIVE_REPRESENTATION_ITEM(
'\X2\042104420430043B044C\X0\, \X2\04330430043B044C04320430043D0438043704380440043E04320430043D043D0430044F\X0\',
'\X2\042104420430043B044C\X0\, \X2\04330430043B044C04320430043D0438043704380440043E04320430043D043D0430044F\X0\');
#137=PROPERTY_DEFINITION('material property','material name',#253);
#138=PROPERTY_DEFINITION('material property','density of part',#253);
#139=DATE_TIME_ROLE('creation_date');
#140=APPLIED_DATE_AND_TIME_ASSIGNMENT(#141,#139,(#253));
#141=DATE_AND_TIME(#142,#143);
#142=CALENDAR_DATE(2019,25,3);
#143=LOCAL_TIME(0,0,0.,#144);
#144=COORDINATED_UNIVERSAL_TIME_OFFSET(0,0,.BEHIND.);
#145=AXIS2_PLACEMENT_3D('',#208,#165,#166);
#146=AXIS2_PLACEMENT_3D('',#209,#167,#168);
#147=AXIS2_PLACEMENT_3D('',#211,#169,#170);
#148=AXIS2_PLACEMENT_3D('',#215,#172,#173);
#149=AXIS2_PLACEMENT_3D('',#216,#174,#175);
#150=AXIS2_PLACEMENT_3D('',#217,#176,#177);
#151=AXIS2_PLACEMENT_3D('',#219,#178,#179);
#152=AXIS2_PLACEMENT_3D('',#221,#180,#181);
#153=AXIS2_PLACEMENT_3D('',#222,#182,#183);
#154=AXIS2_PLACEMENT_3D('',#223,#184,#185);
#155=AXIS2_PLACEMENT_3D('',#227,#187,#188);
#156=AXIS2_PLACEMENT_3D('',#228,#189,#190);
#157=AXIS2_PLACEMENT_3D('',#229,#191,#192);
#158=AXIS2_PLACEMENT_3D('',#231,#193,#194);
#159=AXIS2_PLACEMENT_3D('',#233,#195,#196);
#160=AXIS2_PLACEMENT_3D('',#234,#197,#198);
#161=AXIS2_PLACEMENT_3D('',#235,#199,#200);
#162=AXIS2_PLACEMENT_3D('',#238,#202,#203);
#163=AXIS2_PLACEMENT_3D('',#239,#204,#205);
#164=AXIS2_PLACEMENT_3D('',#240,#206,#207);
#165=DIRECTION('axis',(0.,0.,1.));
#166=DIRECTION('refdir',(1.,0.,0.));
#167=DIRECTION('center_axis',(0.,1.,2.089831575765E-16));
#168=DIRECTION('ref_axis',(1.,0.,0.));
#169=DIRECTION('center_axis',(0.,1.,1.82114360601473E-16));
#170=DIRECTION('ref_axis',(1.,0.,0.));
#171=DIRECTION('',(0.,-1.,-2.089831575765E-16));
#172=DIRECTION('center_axis',(0.,1.,1.82114360601473E-16));
#173=DIRECTION('ref_axis',(1.,0.,0.));
#174=DIRECTION('center_axis',(0.,1.,1.82114360601473E-16));
#175=DIRECTION('ref_axis',(1.,0.,0.));
#176=DIRECTION('center_axis',(1.,0.,0.));
#177=DIRECTION('ref_axis',(0.,0.,-1.));
#178=DIRECTION('center_axis',(-1.,0.,0.));
#179=DIRECTION('ref_axis',(0.,0.,-1.));
#180=DIRECTION('center_axis',(0.,2.13020956338094E-17,-1.));
#181=DIRECTION('ref_axis',(1.,0.,0.));
#182=DIRECTION('center_axis',(0.,2.13020956338094E-17,-1.));
#183=DIRECTION('ref_axis',(1.,0.,0.));
#184=DIRECTION('center_axis',(0.,1.83407779391269E-16,-1.));
#185=DIRECTION('ref_axis',(1.,0.,0.));
#186=DIRECTION('',(0.,-1.83407779391269E-16,1.));
#187=DIRECTION('center_axis',(0.,2.13020956338094E-17,-1.));
#188=DIRECTION('ref_axis',(1.,0.,0.));
#189=DIRECTION('center_axis',(0.,2.13020956338094E-17,-1.));
#190=DIRECTION('ref_axis',(1.,0.,0.));
#191=DIRECTION('center_axis',(1.,0.,0.));
#192=DIRECTION('ref_axis',(0.,0.,-1.));
#193=DIRECTION('center_axis',(-1.,0.,0.));
#194=DIRECTION('ref_axis',(0.,0.,-1.));
#195=DIRECTION('center_axis',(0.,-1.,-3.04579040516208E-16));
#196=DIRECTION('ref_axis',(1.,0.,0.));
#197=DIRECTION('center_axis',(0.,-1.,-3.04579040516208E-16));
#198=DIRECTION('ref_axis',(1.,0.,0.));
#199=DIRECTION('center_axis',(0.,-1.,-3.04579040516208E-16));
#200=DIRECTION('ref_axis',(1.,0.,0.));
#201=DIRECTION('',(0.,1.,3.04579040516208E-16));
#202=DIRECTION('center_axis',(0.,-1.,-3.04579040516208E-16));
#203=DIRECTION('ref_axis',(1.,0.,0.));
#204=DIRECTION('center_axis',(0.,1.,1.82114360601473E-16));
#205=DIRECTION('ref_axis',(0.,-1.82114360601473E-16,1.));
#206=DIRECTION('center_axis',(0.,-1.,-3.04579040516208E-16));
#207=DIRECTION('ref_axis',(0.,3.04579040516208E-16,-1.));
#208=CARTESIAN_POINT('',(0.,0.,0.));
#209=CARTESIAN_POINT('Origin',(0.,9.99999999999998,-51.));
#210=CARTESIAN_POINT('',(-4.,95.,-51.));
#211=CARTESIAN_POINT('Origin',(0.,95.,-51.));
#212=CARTESIAN_POINT('',(-4.,9.99999999999998,-51.));
#213=CARTESIAN_POINT('',(-4.,9.99999999999998,-51.));
#214=CARTESIAN_POINT('',(-4.89858719658941E-16,9.99999999999998,-47.));
#215=CARTESIAN_POINT('Origin',(0.,9.99999999999998,-51.));
#216=CARTESIAN_POINT('Origin',(0.,9.99999999999998,-51.));
#217=CARTESIAN_POINT('Origin',(0.,10.,-41.));
#218=CARTESIAN_POINT('',(-4.89858719658941E-16,4.00000000000001,-41.));
#219=CARTESIAN_POINT('Origin',(-4.89858719658941E-16,10.,-41.));
#220=CARTESIAN_POINT('',(-4.,5.33030847947393E-15,-41.));
#221=CARTESIAN_POINT('Origin',(0.,5.82016719913287E-15,-41.));
#222=CARTESIAN_POINT('Origin',(0.,5.82016719913287E-15,-41.));
#223=CARTESIAN_POINT('Origin',(0.,1.34526038003546E-16,-9.99999999999999));
#224=CARTESIAN_POINT('',(-4.,-3.55332681655396E-16,-9.99999999999999));
#225=CARTESIAN_POINT('',(-4.,6.24384757662488E-16,-9.99999999999999));
#226=CARTESIAN_POINT('',(-4.89858719658941E-16,4.,-9.99999999999999));
#227=CARTESIAN_POINT('Origin',(0.,1.34526038003546E-16,-9.99999999999999));
#228=CARTESIAN_POINT('Origin',(0.,1.34526038003546E-16,-9.99999999999999));
#229=CARTESIAN_POINT('Origin',(0.,10.,-10.));
#230=CARTESIAN_POINT('',(-4.89858719658941E-16,10.,-4.));
#231=CARTESIAN_POINT('Origin',(-4.89858719658941E-16,10.,-10.));
#232=CARTESIAN_POINT('',(-4.,10.,3.68600175553087E-15));
#233=CARTESIAN_POINT('Origin',(0.,10.,3.19614303587192E-15));
#234=CARTESIAN_POINT('Origin',(0.,10.,3.19614303587192E-15));
#235=CARTESIAN_POINT('Origin',(0.,95.,2.90853614797496E-14));
#236=CARTESIAN_POINT('',(-4.,95.,2.95752201994086E-14));
#237=CARTESIAN_POINT('',(-4.,95.,2.85955027600907E-14));
#238=CARTESIAN_POINT('Origin',(0.,95.,2.90853614797496E-14));
#239=CARTESIAN_POINT('Origin',(3.8776625516694E-16,95.,-51.));
#240=CARTESIAN_POINT('Origin',(3.8776625516694E-16,95.,2.89023924468367E-14));
#241=UNCERTAINTY_MEASURE_WITH_UNIT(LENGTH_MEASURE(0.01),#245,
'DISTANCE_ACCURACY_VALUE',
'Maximum model space distance between geometric entities at asserted c
onnectivities');
#242=UNCERTAINTY_MEASURE_WITH_UNIT(LENGTH_MEASURE(0.01),#245,
'DISTANCE_ACCURACY_VALUE',
'Maximum model space distance between geometric entities at asserted c
onnectivities');
#243=(
GEOMETRIC_REPRESENTATION_CONTEXT(3)
GLOBAL_UNCERTAINTY_ASSIGNED_CONTEXT((#241))
GLOBAL_UNIT_ASSIGNED_CONTEXT((#245,#247,#248))
REPRESENTATION_CONTEXT('','3D')
);
#244=(
GEOMETRIC_REPRESENTATION_CONTEXT(3)
GLOBAL_UNCERTAINTY_ASSIGNED_CONTEXT((#242))
GLOBAL_UNIT_ASSIGNED_CONTEXT((#245,#247,#248))
REPRESENTATION_CONTEXT('','3D')
);
#245=(
LENGTH_UNIT()
NAMED_UNIT(*)
SI_UNIT(.MILLI.,.METRE.)
);
#246=(
LENGTH_UNIT()
NAMED_UNIT(*)
SI_UNIT(.CENTI.,.METRE.)
);
#247=(
NAMED_UNIT(*)
PLANE_ANGLE_UNIT()
SI_UNIT($,.RADIAN.)
);
#248=(
NAMED_UNIT(*)
SI_UNIT($,.STERADIAN.)
SOLID_ANGLE_UNIT()
);
#249=SHAPE_DEFINITION_REPRESENTATION(#250,#251);
#250=PRODUCT_DEFINITION_SHAPE('',$,#253);
#251=SHAPE_REPRESENTATION('',(#145),#243);
#252=PRODUCT_DEFINITION_CONTEXT('part definition',#257,'design');
#253=PRODUCT_DEFINITION(
'\X2\0417043004360438043C\X0\ \X2\04310430043B043E0447043D044B04380306\X0\ 
\X2\044304410438043B0435043D043D044B0439\X0\ 41 21-42 M8, ZBU41 21-42 
M8',
'\X2\0417043004360438043C\X0\ \X2\04310430043B043E0447043D044B04380306\X0\ 
\X2\044304410438043B0435043D043D044B0439\X0\ 41 21-42 M8, ZBU41 21-42 
M8',#254,#252);
#254=PRODUCT_DEFINITION_FORMATION('',$,#259);
#255=PRODUCT_RELATED_PRODUCT_CATEGORY(
'\X2\0417043004360438043C\X0\ \X2\04310430043B043E0447043D044B04380306\X0\ 
\X2\044304410438043B0435043D043D044B0439\X0\ 41 21-42 M8, ZBU41 21-42 
M8',
'\X2\0417043004360438043C\X0\ \X2\04310430043B043E0447043D044B04380306\X0\ 
\X2\044304410438043B0435043D043D044B0439\X0\ 41 21-42 M8, ZBU41 21-42 
M8',(#259));
#256=APPLICATION_PROTOCOL_DEFINITION('international standard',
'automotive_design',2009,#257);
#257=APPLICATION_CONTEXT(
'Core Data for Automotive Mechanical Design Process');
#258=PRODUCT_CONTEXT('part definition',#257,'mechanical');
#259=PRODUCT(
'\X2\0417043004360438043C\X0\ \X2\04310430043B043E0447043D044B04380306\X0\ 
\X2\044304410438043B0435043D043D044B0439\X0\ 41 21-42 M8, ZBU41 21-42 
M8',
'\X2\0417043004360438043C\X0\ \X2\04310430043B043E0447043D044B04380306\X0\ 
\X2\044304410438043B0435043D043D044B0439\X0\ 41 21-42 M8, ZBU41 21-42 
M8',$,(#258));
#260=PRESENTATION_STYLE_ASSIGNMENT((#261));
#261=SURFACE_STYLE_USAGE(.BOTH.,#264);
#262=SURFACE_STYLE_RENDERING_WITH_PROPERTIES($,#268,(#263));
#263=SURFACE_STYLE_TRANSPARENT(0.);
#264=SURFACE_SIDE_STYLE('',(#265,#262));
#265=SURFACE_STYLE_FILL_AREA(#266);
#266=FILL_AREA_STYLE('',(#267));
#267=FILL_AREA_STYLE_COLOUR('',#268);
#268=COLOUR_RGB('',0.745098039215686,0.737254901960784,0.729411764705882);
ENDSEC;
END-ISO-10303-21;
