ISO-10303-21;
HEADER;
/* Generated by software containing ST-Developer
 * from STEP Tools, Inc. (www.steptools.com) 
 */

FILE_DESCRIPTION(
/* description */ (
'\X2\0411043E043B0442\X0\ \X2\0441\X0\ \X2\043F043E043B0443043A044004430433043B043E0439\X0\ 
\X2\0433043E043B043E0432043A043E0439\X0\ \X2\0438\X0\ \X2\043A043204300434044004300442043D044B043C\X0\ 
\X2\043F043E04340433043E043B043E0432043D0438043A043E043C\X0\'),
/* implementation_level */ '2;1');

FILE_NAME(
/* name */ 'DIN 603 - M8 x 20.ipt.stp',
/* time_stamp */ '2023-05-19T14:25:46+03:00',
/* author */ ('Manager2'),
/* organization */ (''),
/* preprocessor_version */ 'ST-DEVELOPER v19.2',
/* originating_system */ 'Autodesk Inventor 2023',
/* authorisation */ '');

FILE_SCHEMA (('AUTOMOTIVE_DESIGN { 1 0 10303 214 3 1 1 }'));
ENDSEC;

DATA;
#10=MECHANICAL_DESIGN_GEOMETRIC_PRESENTATION_REPRESENTATION('',(#13),#397);
#11=SHAPE_REPRESENTATION_RELATIONSHIP('SRR','None',#404,#12);
#12=ADVANCED_BREP_SHAPE_REPRESENTATION('',(#14),#396);
#13=STYLED_ITEM('',(#413),#14);
#14=MANIFOLD_SOLID_BREP('Solid1',#213);
#15=FACE_BOUND('',#61,.T.);
#16=SPHERICAL_SURFACE('',#254,16.);
#17=(
BOUNDED_CURVE()
B_SPLINE_CURVE(2,(#340,#341,#342),.UNSPECIFIED.,.F.,.F.)
B_SPLINE_CURVE_WITH_KNOTS((3,3),(0.4132789717076,0.8265579434152),
 .UNSPECIFIED.)
CURVE()
GEOMETRIC_REPRESENTATION_ITEM()
RATIONAL_B_SPLINE_CURVE((1.,1.09868411346782,1.))
REPRESENTATION_ITEM('')
);
#18=(
BOUNDED_CURVE()
B_SPLINE_CURVE(2,(#343,#344,#345),.UNSPECIFIED.,.F.,.F.)
B_SPLINE_CURVE_WITH_KNOTS((3,3),(0.,0.4132789717076),.UNSPECIFIED.)
CURVE()
GEOMETRIC_REPRESENTATION_ITEM()
RATIONAL_B_SPLINE_CURVE((1.,1.09868411346781,1.))
REPRESENTATION_ITEM('')
);
#19=(
BOUNDED_CURVE()
B_SPLINE_CURVE(2,(#348,#349,#350),.UNSPECIFIED.,.F.,.F.)
B_SPLINE_CURVE_WITH_KNOTS((3,3),(0.,0.4132789717076),.UNSPECIFIED.)
CURVE()
GEOMETRIC_REPRESENTATION_ITEM()
RATIONAL_B_SPLINE_CURVE((1.,1.09868411346781,1.))
REPRESENTATION_ITEM('')
);
#20=(
BOUNDED_CURVE()
B_SPLINE_CURVE(2,(#351,#352,#353),.UNSPECIFIED.,.F.,.F.)
B_SPLINE_CURVE_WITH_KNOTS((3,3),(0.4132789717076,0.8265579434152),
 .UNSPECIFIED.)
CURVE()
GEOMETRIC_REPRESENTATION_ITEM()
RATIONAL_B_SPLINE_CURVE((1.,1.09868411346781,1.))
REPRESENTATION_ITEM('')
);
#21=(
BOUNDED_CURVE()
B_SPLINE_CURVE(2,(#356,#357,#358),.UNSPECIFIED.,.F.,.F.)
B_SPLINE_CURVE_WITH_KNOTS((3,3),(0.413278971707601,0.826557943415201),
 .UNSPECIFIED.)
CURVE()
GEOMETRIC_REPRESENTATION_ITEM()
RATIONAL_B_SPLINE_CURVE((1.,1.09868411346781,1.))
REPRESENTATION_ITEM('')
);
#22=(
BOUNDED_CURVE()
B_SPLINE_CURVE(2,(#359,#360,#361),.UNSPECIFIED.,.F.,.F.)
B_SPLINE_CURVE_WITH_KNOTS((3,3),(0.,0.4132789717076),.UNSPECIFIED.)
CURVE()
GEOMETRIC_REPRESENTATION_ITEM()
RATIONAL_B_SPLINE_CURVE((1.,1.09868411346781,1.))
REPRESENTATION_ITEM('')
);
#23=(
BOUNDED_CURVE()
B_SPLINE_CURVE(2,(#364,#365,#366),.UNSPECIFIED.,.F.,.F.)
B_SPLINE_CURVE_WITH_KNOTS((3,3),(0.,0.413278971707601),.UNSPECIFIED.)
CURVE()
GEOMETRIC_REPRESENTATION_ITEM()
RATIONAL_B_SPLINE_CURVE((1.,1.09868411346781,1.))
REPRESENTATION_ITEM('')
);
#24=(
BOUNDED_CURVE()
B_SPLINE_CURVE(2,(#367,#368,#369),.UNSPECIFIED.,.F.,.F.)
B_SPLINE_CURVE_WITH_KNOTS((3,3),(0.4132789717076,0.8265579434152),
 .UNSPECIFIED.)
CURVE()
GEOMETRIC_REPRESENTATION_ITEM()
RATIONAL_B_SPLINE_CURVE((1.,1.09868411346782,1.))
REPRESENTATION_ITEM('')
);
#25=PLANE('',#245);
#26=PLANE('',#250);
#27=PLANE('',#251);
#28=PLANE('',#252);
#29=PLANE('',#253);
#30=PLANE('',#258);
#31=CYLINDRICAL_SURFACE('',#240,4.);
#32=CYLINDRICAL_SURFACE('',#256,10.325);
#33=FACE_OUTER_BOUND('',#47,.T.);
#34=FACE_OUTER_BOUND('',#48,.T.);
#35=FACE_OUTER_BOUND('',#49,.T.);
#36=FACE_OUTER_BOUND('',#50,.T.);
#37=FACE_OUTER_BOUND('',#51,.T.);
#38=FACE_OUTER_BOUND('',#52,.T.);
#39=FACE_OUTER_BOUND('',#53,.T.);
#40=FACE_OUTER_BOUND('',#54,.T.);
#41=FACE_OUTER_BOUND('',#55,.T.);
#42=FACE_OUTER_BOUND('',#56,.T.);
#43=FACE_OUTER_BOUND('',#57,.T.);
#44=FACE_OUTER_BOUND('',#58,.T.);
#45=FACE_OUTER_BOUND('',#59,.T.);
#46=FACE_OUTER_BOUND('',#60,.T.);
#47=EDGE_LOOP('',(#138,#139,#140,#141,#142));
#48=EDGE_LOOP('',(#143,#144,#145,#146,#147,#148,#149,#150));
#49=EDGE_LOOP('',(#151));
#50=EDGE_LOOP('',(#152,#153,#154));
#51=EDGE_LOOP('',(#155,#156,#157));
#52=EDGE_LOOP('',(#158,#159,#160));
#53=EDGE_LOOP('',(#161,#162,#163));
#54=EDGE_LOOP('',(#164,#165,#166,#167,#168));
#55=EDGE_LOOP('',(#169,#170,#171,#172,#173));
#56=EDGE_LOOP('',(#174,#175,#176,#177,#178));
#57=EDGE_LOOP('',(#179,#180,#181,#182,#183));
#58=EDGE_LOOP('',(#184));
#59=EDGE_LOOP('',(#185,#186,#187,#188));
#60=EDGE_LOOP('',(#189));
#61=EDGE_LOOP('',(#190,#191,#192,#193));
#62=LINE('',#323,#73);
#63=LINE('',#329,#74);
#64=LINE('',#372,#75);
#65=LINE('',#374,#76);
#66=LINE('',#375,#77);
#67=LINE('',#378,#78);
#68=LINE('',#379,#79);
#69=LINE('',#382,#80);
#70=LINE('',#383,#81);
#71=LINE('',#385,#82);
#72=LINE('',#392,#83);
#73=VECTOR('',#265,3.66172);
#74=VECTOR('',#272,4.);
#75=VECTOR('',#293,10.);
#76=VECTOR('',#294,10.);
#77=VECTOR('',#295,10.);
#78=VECTOR('',#298,10.);
#79=VECTOR('',#299,10.);
#80=VECTOR('',#302,10.);
#81=VECTOR('',#303,10.);
#82=VECTOR('',#306,10.);
#83=VECTOR('',#315,10.325);
#84=CIRCLE('',#237,3.32344);
#85=CIRCLE('',#238,4.);
#86=CIRCLE('',#239,4.);
#87=CIRCLE('',#241,4.);
#88=CIRCLE('',#242,4.);
#89=CIRCLE('',#243,4.);
#90=CIRCLE('',#244,4.);
#91=CIRCLE('',#255,10.325);
#92=CIRCLE('',#257,10.325);
#93=VERTEX_POINT('',#320);
#94=VERTEX_POINT('',#322);
#95=VERTEX_POINT('',#324);
#96=VERTEX_POINT('',#328);
#97=VERTEX_POINT('',#330);
#98=VERTEX_POINT('',#332);
#99=VERTEX_POINT('',#334);
#100=VERTEX_POINT('',#339);
#101=VERTEX_POINT('',#347);
#102=VERTEX_POINT('',#355);
#103=VERTEX_POINT('',#363);
#104=VERTEX_POINT('',#371);
#105=VERTEX_POINT('',#373);
#106=VERTEX_POINT('',#377);
#107=VERTEX_POINT('',#381);
#108=VERTEX_POINT('',#387);
#109=VERTEX_POINT('',#390);
#110=EDGE_CURVE('',#93,#93,#84,.T.);
#111=EDGE_CURVE('',#93,#94,#62,.T.);
#112=EDGE_CURVE('',#94,#95,#85,.T.);
#113=EDGE_CURVE('',#95,#94,#86,.T.);
#114=EDGE_CURVE('',#95,#96,#63,.T.);
#115=EDGE_CURVE('',#96,#97,#87,.T.);
#116=EDGE_CURVE('',#97,#98,#88,.T.);
#117=EDGE_CURVE('',#98,#99,#89,.T.);
#118=EDGE_CURVE('',#99,#96,#90,.T.);
#119=EDGE_CURVE('',#99,#100,#17,.T.);
#120=EDGE_CURVE('',#100,#98,#18,.T.);
#121=EDGE_CURVE('',#101,#97,#19,.T.);
#122=EDGE_CURVE('',#98,#101,#20,.T.);
#123=EDGE_CURVE('',#96,#102,#21,.T.);
#124=EDGE_CURVE('',#102,#99,#22,.T.);
#125=EDGE_CURVE('',#103,#96,#23,.T.);
#126=EDGE_CURVE('',#97,#103,#24,.T.);
#127=EDGE_CURVE('',#104,#102,#64,.T.);
#128=EDGE_CURVE('',#105,#104,#65,.T.);
#129=EDGE_CURVE('',#105,#103,#66,.T.);
#130=EDGE_CURVE('',#106,#100,#67,.T.);
#131=EDGE_CURVE('',#104,#106,#68,.T.);
#132=EDGE_CURVE('',#107,#101,#69,.T.);
#133=EDGE_CURVE('',#106,#107,#70,.T.);
#134=EDGE_CURVE('',#107,#105,#71,.T.);
#135=EDGE_CURVE('',#108,#108,#91,.T.);
#136=EDGE_CURVE('',#109,#109,#92,.T.);
#137=EDGE_CURVE('',#109,#108,#72,.T.);
#138=ORIENTED_EDGE('',*,*,#110,.T.);
#139=ORIENTED_EDGE('',*,*,#111,.T.);
#140=ORIENTED_EDGE('',*,*,#112,.T.);
#141=ORIENTED_EDGE('',*,*,#113,.T.);
#142=ORIENTED_EDGE('',*,*,#111,.F.);
#143=ORIENTED_EDGE('',*,*,#112,.F.);
#144=ORIENTED_EDGE('',*,*,#113,.F.);
#145=ORIENTED_EDGE('',*,*,#114,.T.);
#146=ORIENTED_EDGE('',*,*,#115,.T.);
#147=ORIENTED_EDGE('',*,*,#116,.T.);
#148=ORIENTED_EDGE('',*,*,#117,.T.);
#149=ORIENTED_EDGE('',*,*,#118,.T.);
#150=ORIENTED_EDGE('',*,*,#114,.F.);
#151=ORIENTED_EDGE('',*,*,#110,.F.);
#152=ORIENTED_EDGE('',*,*,#119,.F.);
#153=ORIENTED_EDGE('',*,*,#117,.F.);
#154=ORIENTED_EDGE('',*,*,#120,.F.);
#155=ORIENTED_EDGE('',*,*,#121,.F.);
#156=ORIENTED_EDGE('',*,*,#122,.F.);
#157=ORIENTED_EDGE('',*,*,#116,.F.);
#158=ORIENTED_EDGE('',*,*,#123,.F.);
#159=ORIENTED_EDGE('',*,*,#118,.F.);
#160=ORIENTED_EDGE('',*,*,#124,.F.);
#161=ORIENTED_EDGE('',*,*,#125,.F.);
#162=ORIENTED_EDGE('',*,*,#126,.F.);
#163=ORIENTED_EDGE('',*,*,#115,.F.);
#164=ORIENTED_EDGE('',*,*,#125,.T.);
#165=ORIENTED_EDGE('',*,*,#123,.T.);
#166=ORIENTED_EDGE('',*,*,#127,.F.);
#167=ORIENTED_EDGE('',*,*,#128,.F.);
#168=ORIENTED_EDGE('',*,*,#129,.T.);
#169=ORIENTED_EDGE('',*,*,#124,.T.);
#170=ORIENTED_EDGE('',*,*,#119,.T.);
#171=ORIENTED_EDGE('',*,*,#130,.F.);
#172=ORIENTED_EDGE('',*,*,#131,.F.);
#173=ORIENTED_EDGE('',*,*,#127,.T.);
#174=ORIENTED_EDGE('',*,*,#122,.T.);
#175=ORIENTED_EDGE('',*,*,#132,.F.);
#176=ORIENTED_EDGE('',*,*,#133,.F.);
#177=ORIENTED_EDGE('',*,*,#130,.T.);
#178=ORIENTED_EDGE('',*,*,#120,.T.);
#179=ORIENTED_EDGE('',*,*,#126,.T.);
#180=ORIENTED_EDGE('',*,*,#129,.F.);
#181=ORIENTED_EDGE('',*,*,#134,.F.);
#182=ORIENTED_EDGE('',*,*,#132,.T.);
#183=ORIENTED_EDGE('',*,*,#121,.T.);
#184=ORIENTED_EDGE('',*,*,#135,.F.);
#185=ORIENTED_EDGE('',*,*,#136,.F.);
#186=ORIENTED_EDGE('',*,*,#137,.T.);
#187=ORIENTED_EDGE('',*,*,#135,.T.);
#188=ORIENTED_EDGE('',*,*,#137,.F.);
#189=ORIENTED_EDGE('',*,*,#136,.T.);
#190=ORIENTED_EDGE('',*,*,#131,.T.);
#191=ORIENTED_EDGE('',*,*,#133,.T.);
#192=ORIENTED_EDGE('',*,*,#134,.T.);
#193=ORIENTED_EDGE('',*,*,#128,.T.);
#194=CONICAL_SURFACE('',#236,3.66172,0.208356614115488);
#195=CONICAL_SURFACE('',#246,4.82842712474619,1.0471975511966);
#196=CONICAL_SURFACE('',#247,4.82842712474619,1.0471975511966);
#197=CONICAL_SURFACE('',#248,4.82842712474619,1.0471975511966);
#198=CONICAL_SURFACE('',#249,4.82842712474619,1.0471975511966);
#199=ADVANCED_FACE('',(#33),#194,.T.);
#200=ADVANCED_FACE('',(#34),#31,.T.);
#201=ADVANCED_FACE('',(#35),#25,.T.);
#202=ADVANCED_FACE('',(#36),#195,.T.);
#203=ADVANCED_FACE('',(#37),#196,.T.);
#204=ADVANCED_FACE('',(#38),#197,.T.);
#205=ADVANCED_FACE('',(#39),#198,.T.);
#206=ADVANCED_FACE('',(#40),#26,.T.);
#207=ADVANCED_FACE('',(#41),#27,.T.);
#208=ADVANCED_FACE('',(#42),#28,.T.);
#209=ADVANCED_FACE('',(#43),#29,.T.);
#210=ADVANCED_FACE('',(#44),#16,.T.);
#211=ADVANCED_FACE('',(#45),#32,.T.);
#212=ADVANCED_FACE('',(#46,#15),#30,.T.);
#213=CLOSED_SHELL('',(#199,#200,#201,#202,#203,#204,#205,#206,#207,#208,
#209,#210,#211,#212));
#214=DERIVED_UNIT_ELEMENT(#217,1.);
#215=DERIVED_UNIT_ELEMENT(#399,-3.);
#216=DIMENSIONAL_EXPONENTS(0.,1.,0.,0.,0.,0.,0.);
#217=(
CONVERSION_BASED_UNIT('gram',#219)
MASS_UNIT()
NAMED_UNIT(#216)
);
#218=(
MASS_UNIT()
NAMED_UNIT(*)
SI_UNIT(.KILO.,.GRAM.)
);
#219=MASS_MEASURE_WITH_UNIT(MASS_MEASURE(0.001),#218);
#220=DERIVED_UNIT((#214,#215));
#221=MEASURE_REPRESENTATION_ITEM('density measure',
POSITIVE_RATIO_MEASURE(7.85),#220);
#222=PROPERTY_DEFINITION_REPRESENTATION(#227,#224);
#223=PROPERTY_DEFINITION_REPRESENTATION(#228,#225);
#224=REPRESENTATION('material name',(#226),#396);
#225=REPRESENTATION('density',(#221),#396);
#226=DESCRIPTIVE_REPRESENTATION_ITEM('\X2\042104420430043B044C\X0\, \X2\043C044F0433043A0430044F\X0\',
'\X2\042104420430043B044C\X0\, \X2\043C044F0433043A0430044F\X0\');
#227=PROPERTY_DEFINITION('material property','material name',#406);
#228=PROPERTY_DEFINITION('material property','density of part',#406);
#229=DATE_TIME_ROLE('creation_date');
#230=APPLIED_DATE_AND_TIME_ASSIGNMENT(#231,#229,(#406));
#231=DATE_AND_TIME(#232,#233);
#232=CALENDAR_DATE(2020,21,1);
#233=LOCAL_TIME(0,0,0.,#234);
#234=COORDINATED_UNIVERSAL_TIME_OFFSET(0,0,.BEHIND.);
#235=AXIS2_PLACEMENT_3D('',#318,#259,#260);
#236=AXIS2_PLACEMENT_3D('',#319,#261,#262);
#237=AXIS2_PLACEMENT_3D('',#321,#263,#264);
#238=AXIS2_PLACEMENT_3D('',#325,#266,#267);
#239=AXIS2_PLACEMENT_3D('',#326,#268,#269);
#240=AXIS2_PLACEMENT_3D('',#327,#270,#271);
#241=AXIS2_PLACEMENT_3D('',#331,#273,#274);
#242=AXIS2_PLACEMENT_3D('',#333,#275,#276);
#243=AXIS2_PLACEMENT_3D('',#335,#277,#278);
#244=AXIS2_PLACEMENT_3D('',#336,#279,#280);
#245=AXIS2_PLACEMENT_3D('',#337,#281,#282);
#246=AXIS2_PLACEMENT_3D('',#338,#283,#284);
#247=AXIS2_PLACEMENT_3D('',#346,#285,#286);
#248=AXIS2_PLACEMENT_3D('',#354,#287,#288);
#249=AXIS2_PLACEMENT_3D('',#362,#289,#290);
#250=AXIS2_PLACEMENT_3D('',#370,#291,#292);
#251=AXIS2_PLACEMENT_3D('',#376,#296,#297);
#252=AXIS2_PLACEMENT_3D('',#380,#300,#301);
#253=AXIS2_PLACEMENT_3D('',#384,#304,#305);
#254=AXIS2_PLACEMENT_3D('',#386,#307,#308);
#255=AXIS2_PLACEMENT_3D('',#388,#309,#310);
#256=AXIS2_PLACEMENT_3D('',#389,#311,#312);
#257=AXIS2_PLACEMENT_3D('',#391,#313,#314);
#258=AXIS2_PLACEMENT_3D('',#393,#316,#317);
#259=DIRECTION('axis',(0.,0.,1.));
#260=DIRECTION('refdir',(1.,0.,0.));
#261=DIRECTION('center_axis',(-1.,9.89380711483093E-34,0.));
#262=DIRECTION('ref_axis',(-4.48989468306065E-34,-1.,0.));
#263=DIRECTION('center_axis',(-1.,9.89380711483093E-34,0.));
#264=DIRECTION('ref_axis',(-9.89380711483093E-34,-1.,0.));
#265=DIRECTION('',(-0.978372173934697,0.206852336874143,2.53321052249069E-17));
#266=DIRECTION('center_axis',(1.,-9.89380711483093E-34,0.));
#267=DIRECTION('ref_axis',(0.,-1.,0.));
#268=DIRECTION('center_axis',(1.,-9.89380711483093E-34,0.));
#269=DIRECTION('ref_axis',(0.,-1.,0.));
#270=DIRECTION('center_axis',(1.,-9.89380711483093E-34,0.));
#271=DIRECTION('ref_axis',(0.,1.,0.));
#272=DIRECTION('',(-1.,9.89380711483093E-34,0.));
#273=DIRECTION('center_axis',(1.,0.,0.));
#274=DIRECTION('ref_axis',(0.,1.,0.));
#275=DIRECTION('center_axis',(1.,0.,0.));
#276=DIRECTION('ref_axis',(0.,1.,0.));
#277=DIRECTION('center_axis',(1.,0.,0.));
#278=DIRECTION('ref_axis',(0.,1.,0.));
#279=DIRECTION('center_axis',(1.,0.,0.));
#280=DIRECTION('ref_axis',(0.,1.,0.));
#281=DIRECTION('center_axis',(1.,-9.89380711483093E-34,0.));
#282=DIRECTION('ref_axis',(0.,0.,-1.));
#283=DIRECTION('center_axis',(-1.,0.,0.));
#284=DIRECTION('ref_axis',(0.,0.707106781186547,0.707106781186547));
#285=DIRECTION('center_axis',(-1.,0.,0.));
#286=DIRECTION('ref_axis',(0.,0.707106781186547,0.707106781186547));
#287=DIRECTION('center_axis',(-1.,0.,0.));
#288=DIRECTION('ref_axis',(0.,0.707106781186547,0.707106781186547));
#289=DIRECTION('center_axis',(-1.,0.,0.));
#290=DIRECTION('ref_axis',(0.,-0.707106781186547,-0.707106781186547));
#291=DIRECTION('center_axis',(0.,-1.,0.));
#292=DIRECTION('ref_axis',(0.,0.,-1.));
#293=DIRECTION('',(1.,0.,0.));
#294=DIRECTION('',(0.,0.,1.));
#295=DIRECTION('',(1.,0.,0.));
#296=DIRECTION('center_axis',(0.,-2.77555756156289E-16,1.));
#297=DIRECTION('ref_axis',(1.,0.,0.));
#298=DIRECTION('',(1.,0.,0.));
#299=DIRECTION('',(9.89380711483093E-34,1.,2.77555756156289E-16));
#300=DIRECTION('center_axis',(0.,1.,0.));
#301=DIRECTION('ref_axis',(0.,0.,1.));
#302=DIRECTION('',(1.,0.,0.));
#303=DIRECTION('',(0.,0.,-1.));
#304=DIRECTION('center_axis',(0.,-4.16333634234434E-16,-1.));
#305=DIRECTION('ref_axis',(-1.,0.,0.));
#306=DIRECTION('',(-9.89380711483093E-34,-1.,4.16333634234434E-16));
#307=DIRECTION('center_axis',(-1.11022302462516E-16,-1.17726459990181E-19,
1.));
#308=DIRECTION('ref_axis',(-0.99999815176639,-0.00192261899630402,0.));
#309=DIRECTION('center_axis',(1.,-9.89380711483093E-34,0.));
#310=DIRECTION('ref_axis',(0.,1.,0.));
#311=DIRECTION('center_axis',(1.,-9.89380711483093E-34,0.));
#312=DIRECTION('ref_axis',(0.,1.,0.));
#313=DIRECTION('center_axis',(1.,-9.89380711483093E-34,0.));
#314=DIRECTION('ref_axis',(0.,1.,0.));
#315=DIRECTION('',(-1.,9.89380711483093E-34,0.));
#316=DIRECTION('center_axis',(1.,-9.89380711483093E-34,0.));
#317=DIRECTION('ref_axis',(0.,0.,-1.));
#318=CARTESIAN_POINT('',(0.,0.,0.));
#319=CARTESIAN_POINT('Origin',(18.4,-2.30327829633264E-32,0.));
#320=CARTESIAN_POINT('',(20.,3.32344,-4.07004015815828E-16));
#321=CARTESIAN_POINT('Origin',(20.,-2.46157921016994E-32,0.));
#322=CARTESIAN_POINT('',(16.8,4.,4.89858719658941E-16));
#323=CARTESIAN_POINT('',(18.4,3.66172,4.48431367737385E-16));
#324=CARTESIAN_POINT('',(16.8,-4.,-4.89858719658941E-16));
#325=CARTESIAN_POINT('Origin',(16.8,-2.14497738249535E-32,0.));
#326=CARTESIAN_POINT('Origin',(16.8,-2.14497738249535E-32,0.));
#327=CARTESIAN_POINT('Origin',(16.,-2.0658269255767E-32,0.));
#328=CARTESIAN_POINT('',(5.6,-3.99999999999999,0.));
#329=CARTESIAN_POINT('',(16.,-4.,-4.89858719658941E-16));
#330=CARTESIAN_POINT('',(5.6,4.89858719658941E-16,-4.));
#331=CARTESIAN_POINT('Origin',(5.6,-1.03687098563428E-32,0.));
#332=CARTESIAN_POINT('',(5.6,4.,0.));
#333=CARTESIAN_POINT('Origin',(5.6,-1.03687098563428E-32,0.));
#334=CARTESIAN_POINT('',(5.6,-1.11022302462516E-15,4.));
#335=CARTESIAN_POINT('Origin',(5.6,-1.03687098563428E-32,0.));
#336=CARTESIAN_POINT('Origin',(5.6,-1.03687098563428E-32,0.));
#337=CARTESIAN_POINT('Origin',(20.,2.,0.));
#338=CARTESIAN_POINT('Origin',(5.1217073765238,-5.55111512312578E-16,0.));
#339=CARTESIAN_POINT('',(4.6434147530476,4.,4.));
#340=CARTESIAN_POINT('Ctrl Pts',(5.6,-1.11022302462516E-15,4.));
#341=CARTESIAN_POINT('Ctrl Pts',(5.6,1.65685424949238,4.));
#342=CARTESIAN_POINT('Ctrl Pts',(4.6434147530476,4.,4.));
#343=CARTESIAN_POINT('Ctrl Pts',(4.6434147530476,4.,4.));
#344=CARTESIAN_POINT('Ctrl Pts',(5.6,4.,1.65685424949238));
#345=CARTESIAN_POINT('Ctrl Pts',(5.6,4.,0.));
#346=CARTESIAN_POINT('Origin',(5.1217073765238,-5.55111512312578E-16,0.));
#347=CARTESIAN_POINT('',(4.6434147530476,4.,-4.));
#348=CARTESIAN_POINT('Ctrl Pts',(4.6434147530476,3.99999999999999,-4.));
#349=CARTESIAN_POINT('Ctrl Pts',(5.6,1.65685424949238,-4.));
#350=CARTESIAN_POINT('Ctrl Pts',(5.6,4.89858719658941E-16,-4.));
#351=CARTESIAN_POINT('Ctrl Pts',(5.6,4.,0.));
#352=CARTESIAN_POINT('Ctrl Pts',(5.6,4.,-1.65685424949238));
#353=CARTESIAN_POINT('Ctrl Pts',(4.6434147530476,4.,-4.));
#354=CARTESIAN_POINT('Origin',(5.1217073765238,-5.55111512312578E-16,0.));
#355=CARTESIAN_POINT('',(4.6434147530476,-3.99999999999999,4.));
#356=CARTESIAN_POINT('Ctrl Pts',(5.6,-3.99999999999999,0.));
#357=CARTESIAN_POINT('Ctrl Pts',(5.6,-3.99999999999999,1.65685424949238));
#358=CARTESIAN_POINT('Ctrl Pts',(4.6434147530476,-3.99999999999999,4.));
#359=CARTESIAN_POINT('Ctrl Pts',(4.6434147530476,-4.,4.));
#360=CARTESIAN_POINT('Ctrl Pts',(5.6,-1.65685424949238,4.));
#361=CARTESIAN_POINT('Ctrl Pts',(5.6,-1.11022302462516E-15,4.));
#362=CARTESIAN_POINT('Origin',(5.1217073765238,-5.55111512312578E-16,0.));
#363=CARTESIAN_POINT('',(4.6434147530476,-3.99999999999999,-4.));
#364=CARTESIAN_POINT('Ctrl Pts',(4.6434147530476,-3.99999999999999,-4.));
#365=CARTESIAN_POINT('Ctrl Pts',(5.6,-3.99999999999999,-1.65685424949238));
#366=CARTESIAN_POINT('Ctrl Pts',(5.6,-3.99999999999999,0.));
#367=CARTESIAN_POINT('Ctrl Pts',(5.6,4.89858719658941E-16,-4.));
#368=CARTESIAN_POINT('Ctrl Pts',(5.6,-1.65685424949238,-4.));
#369=CARTESIAN_POINT('Ctrl Pts',(4.6434147530476,-4.,-4.));
#370=CARTESIAN_POINT('Origin',(1.66533453693773E-15,-3.99999999999999,-3.2001634885682E-15));
#371=CARTESIAN_POINT('',(1.66533453693773E-15,-4.,4.));
#372=CARTESIAN_POINT('',(1.66533453693773E-15,-4.,4.));
#373=CARTESIAN_POINT('',(1.66533453693773E-15,-4.,-4.));
#374=CARTESIAN_POINT('',(1.66533453693773E-15,-3.99999999999999,-1.6000817442841E-15));
#375=CARTESIAN_POINT('',(1.66533453693773E-15,-4.,-4.));
#376=CARTESIAN_POINT('Origin',(1.66533453693773E-15,2.14465327544338E-15,
4.));
#377=CARTESIAN_POINT('',(1.66533453693773E-15,4.,4.));
#378=CARTESIAN_POINT('',(1.66533453693773E-15,4.,4.));
#379=CARTESIAN_POINT('',(1.66533453693773E-15,3.58125,4.));
#380=CARTESIAN_POINT('Origin',(1.66533453693773E-15,4.,-2.22044604925031E-15));
#381=CARTESIAN_POINT('',(1.66533453693773E-15,4.,-4.));
#382=CARTESIAN_POINT('',(1.66533453693773E-15,4.,-4.));
#383=CARTESIAN_POINT('',(1.66533453693773E-15,4.,-1.11022302462516E-15));
#384=CARTESIAN_POINT('Origin',(1.66533453693773E-15,3.12437071476127E-15,
-4.));
#385=CARTESIAN_POINT('',(1.66533453693773E-15,3.58125,-4.));
#386=CARTESIAN_POINT('Origin',(11.12,0.,0.));
#387=CARTESIAN_POINT('',(-1.10269916998695,-10.325,-1.26444782011964E-15));
#388=CARTESIAN_POINT('Origin',(-1.10269916998695,-3.73718858268398E-33,
0.));
#389=CARTESIAN_POINT('Origin',(-0.551349584993477,-4.28268322736074E-33,
0.));
#390=CARTESIAN_POINT('',(0.,-10.325,-1.26444782011964E-15));
#391=CARTESIAN_POINT('Origin',(0.,-4.82817787203749E-33,0.));
#392=CARTESIAN_POINT('',(-0.551349584993477,-10.325,-1.26444782011964E-15));
#393=CARTESIAN_POINT('Origin',(1.66533453693773E-15,7.1625,0.));
#394=UNCERTAINTY_MEASURE_WITH_UNIT(LENGTH_MEASURE(0.01),#398,
'DISTANCE_ACCURACY_VALUE',
'Maximum model space distance between geometric entities at asserted c
onnectivities');
#395=UNCERTAINTY_MEASURE_WITH_UNIT(LENGTH_MEASURE(0.01),#398,
'DISTANCE_ACCURACY_VALUE',
'Maximum model space distance between geometric entities at asserted c
onnectivities');
#396=(
GEOMETRIC_REPRESENTATION_CONTEXT(3)
GLOBAL_UNCERTAINTY_ASSIGNED_CONTEXT((#394))
GLOBAL_UNIT_ASSIGNED_CONTEXT((#398,#400,#401))
REPRESENTATION_CONTEXT('','3D')
);
#397=(
GEOMETRIC_REPRESENTATION_CONTEXT(3)
GLOBAL_UNCERTAINTY_ASSIGNED_CONTEXT((#395))
GLOBAL_UNIT_ASSIGNED_CONTEXT((#398,#400,#401))
REPRESENTATION_CONTEXT('','3D')
);
#398=(
LENGTH_UNIT()
NAMED_UNIT(*)
SI_UNIT(.MILLI.,.METRE.)
);
#399=(
LENGTH_UNIT()
NAMED_UNIT(*)
SI_UNIT(.CENTI.,.METRE.)
);
#400=(
NAMED_UNIT(*)
PLANE_ANGLE_UNIT()
SI_UNIT($,.RADIAN.)
);
#401=(
NAMED_UNIT(*)
SI_UNIT($,.STERADIAN.)
SOLID_ANGLE_UNIT()
);
#402=SHAPE_DEFINITION_REPRESENTATION(#403,#404);
#403=PRODUCT_DEFINITION_SHAPE('',$,#406);
#404=SHAPE_REPRESENTATION('',(#235),#396);
#405=PRODUCT_DEFINITION_CONTEXT('part definition',#410,'design');
#406=PRODUCT_DEFINITION('DIN 603 - M8 x 20','DIN 603 - M8 x 20',#407,#405);
#407=PRODUCT_DEFINITION_FORMATION('',$,#412);
#408=PRODUCT_RELATED_PRODUCT_CATEGORY('DIN 603 - M8 x 20',
'DIN 603 - M8 x 20',(#412));
#409=APPLICATION_PROTOCOL_DEFINITION('international standard',
'automotive_design',2009,#410);
#410=APPLICATION_CONTEXT(
'Core Data for Automotive Mechanical Design Process');
#411=PRODUCT_CONTEXT('part definition',#410,'mechanical');
#412=PRODUCT('DIN 603 - M8 x 20','DIN 603 - M8 x 20',
'\X2\0411043E043B0442\X0\ \X2\0441\X0\ \X2\043F043E043B0443043A044004430433043B043E0439\X0\ 
\X2\0433043E043B043E0432043A043E0439\X0\ \X2\0438\X0\ \X2\043A043204300434044004300442043D044B043C\X0\ 
\X2\043F043E04340433043E043B043E0432043D0438043A043E043C\X0\',(#411));
#413=PRESENTATION_STYLE_ASSIGNMENT((#414));
#414=SURFACE_STYLE_USAGE(.BOTH.,#417);
#415=SURFACE_STYLE_RENDERING_WITH_PROPERTIES($,#421,(#416));
#416=SURFACE_STYLE_TRANSPARENT(0.);
#417=SURFACE_SIDE_STYLE('',(#418,#415));
#418=SURFACE_STYLE_FILL_AREA(#419);
#419=FILL_AREA_STYLE('',(#420));
#420=FILL_AREA_STYLE_COLOUR('',#421);
#421=COLOUR_RGB('',0.745098039215686,0.737254901960784,0.729411764705882);
ENDSEC;
END-ISO-10303-21;
