ISO-10303-21;
HEADER;
/* Generated by software containing ST-Developer
 * from STEP Tools, Inc. (www.steptools.com) 
 */

FILE_DESCRIPTION(
/* description */ ('\X2\04280430043904310430\X0\'),
/* implementation_level */ '2;1');

FILE_NAME(
/* name */ 'DIN 125 - A 10,5.ipt.stp',
/* time_stamp */ '2023-05-19T14:25:31+03:00',
/* author */ ('\X2\042004420438044904350432\X0\ \X2\0410\X0\.\X2\041E\X0\.'),

/* organization */ (''),
/* preprocessor_version */ 'ST-DEVELOPER v19.2',
/* originating_system */ 'Autodesk Inventor 2023',
/* authorisation */ '');

FILE_SCHEMA (('AUTOMOTIVE_DESIGN { 1 0 10303 214 3 1 1 }'));
ENDSEC;

DATA;
#10=MECHANICAL_DESIGN_GEOMETRIC_PRESENTATION_REPRESENTATION('',(#13),#134);
#11=SHAPE_REPRESENTATION_RELATIONSHIP('SRR','None',#141,#12);
#12=ADVANCED_BREP_SHAPE_REPRESENTATION('',(#14),#133);
#13=STYLED_ITEM('',(#150),#14);
#14=MANIFOLD_SOLID_BREP('Solid1',#65);
#15=FACE_BOUND('',#26,.T.);
#16=FACE_BOUND('',#28,.T.);
#17=PLANE('',#94);
#18=PLANE('',#95);
#19=FACE_OUTER_BOUND('',#23,.T.);
#20=FACE_OUTER_BOUND('',#24,.T.);
#21=FACE_OUTER_BOUND('',#25,.T.);
#22=FACE_OUTER_BOUND('',#27,.T.);
#23=EDGE_LOOP('',(#47,#48,#49,#50));
#24=EDGE_LOOP('',(#51,#52,#53,#54));
#25=EDGE_LOOP('',(#55));
#26=EDGE_LOOP('',(#56));
#27=EDGE_LOOP('',(#57));
#28=EDGE_LOOP('',(#58));
#29=LINE('',#121,#31);
#30=LINE('',#127,#32);
#31=VECTOR('',#102,5.25);
#32=VECTOR('',#109,10.);
#33=CIRCLE('',#89,5.25);
#34=CIRCLE('',#90,5.25);
#35=CIRCLE('',#92,10.);
#36=CIRCLE('',#93,10.);
#37=VERTEX_POINT('',#118);
#38=VERTEX_POINT('',#120);
#39=VERTEX_POINT('',#124);
#40=VERTEX_POINT('',#126);
#41=EDGE_CURVE('',#37,#37,#33,.T.);
#42=EDGE_CURVE('',#37,#38,#29,.T.);
#43=EDGE_CURVE('',#38,#38,#34,.T.);
#44=EDGE_CURVE('',#39,#39,#35,.T.);
#45=EDGE_CURVE('',#39,#40,#30,.T.);
#46=EDGE_CURVE('',#40,#40,#36,.T.);
#47=ORIENTED_EDGE('',*,*,#41,.F.);
#48=ORIENTED_EDGE('',*,*,#42,.T.);
#49=ORIENTED_EDGE('',*,*,#43,.F.);
#50=ORIENTED_EDGE('',*,*,#42,.F.);
#51=ORIENTED_EDGE('',*,*,#44,.T.);
#52=ORIENTED_EDGE('',*,*,#45,.T.);
#53=ORIENTED_EDGE('',*,*,#46,.F.);
#54=ORIENTED_EDGE('',*,*,#45,.F.);
#55=ORIENTED_EDGE('',*,*,#44,.F.);
#56=ORIENTED_EDGE('',*,*,#43,.T.);
#57=ORIENTED_EDGE('',*,*,#46,.T.);
#58=ORIENTED_EDGE('',*,*,#41,.T.);
#59=CYLINDRICAL_SURFACE('',#88,5.25);
#60=CYLINDRICAL_SURFACE('',#91,10.);
#61=ADVANCED_FACE('',(#19),#59,.F.);
#62=ADVANCED_FACE('',(#20),#60,.T.);
#63=ADVANCED_FACE('',(#21,#15),#17,.F.);
#64=ADVANCED_FACE('',(#22,#16),#18,.T.);
#65=CLOSED_SHELL('',(#61,#62,#63,#64));
#66=DERIVED_UNIT_ELEMENT(#69,1.);
#67=DERIVED_UNIT_ELEMENT(#136,-3.);
#68=DIMENSIONAL_EXPONENTS(0.,1.,0.,0.,0.,0.,0.);
#69=(
CONVERSION_BASED_UNIT('gram',#71)
MASS_UNIT()
NAMED_UNIT(#68)
);
#70=(
MASS_UNIT()
NAMED_UNIT(*)
SI_UNIT(.KILO.,.GRAM.)
);
#71=MASS_MEASURE_WITH_UNIT(MASS_MEASURE(0.001),#70);
#72=DERIVED_UNIT((#66,#67));
#73=MEASURE_REPRESENTATION_ITEM('density measure',
POSITIVE_RATIO_MEASURE(7.85),#72);
#74=PROPERTY_DEFINITION_REPRESENTATION(#79,#76);
#75=PROPERTY_DEFINITION_REPRESENTATION(#80,#77);
#76=REPRESENTATION('material name',(#78),#133);
#77=REPRESENTATION('density',(#73),#133);
#78=DESCRIPTIVE_REPRESENTATION_ITEM('\X2\042104420430043B044C\X0\, \X2\043C044F0433043A0430044F\X0\',
'\X2\042104420430043B044C\X0\, \X2\043C044F0433043A0430044F\X0\');
#79=PROPERTY_DEFINITION('material property','material name',#143);
#80=PROPERTY_DEFINITION('material property','density of part',#143);
#81=DATE_TIME_ROLE('creation_date');
#82=APPLIED_DATE_AND_TIME_ASSIGNMENT(#83,#81,(#143));
#83=DATE_AND_TIME(#84,#85);
#84=CALENDAR_DATE(2022,4,2);
#85=LOCAL_TIME(0,0,0.,#86);
#86=COORDINATED_UNIVERSAL_TIME_OFFSET(0,0,.BEHIND.);
#87=AXIS2_PLACEMENT_3D('',#116,#96,#97);
#88=AXIS2_PLACEMENT_3D('',#117,#98,#99);
#89=AXIS2_PLACEMENT_3D('',#119,#100,#101);
#90=AXIS2_PLACEMENT_3D('',#122,#103,#104);
#91=AXIS2_PLACEMENT_3D('',#123,#105,#106);
#92=AXIS2_PLACEMENT_3D('',#125,#107,#108);
#93=AXIS2_PLACEMENT_3D('',#128,#110,#111);
#94=AXIS2_PLACEMENT_3D('',#129,#112,#113);
#95=AXIS2_PLACEMENT_3D('',#130,#114,#115);
#96=DIRECTION('axis',(0.,0.,1.));
#97=DIRECTION('refdir',(1.,0.,0.));
#98=DIRECTION('center_axis',(1.,0.,0.));
#99=DIRECTION('ref_axis',(0.,-1.,0.));
#100=DIRECTION('center_axis',(1.,0.,0.));
#101=DIRECTION('ref_axis',(0.,-1.,0.));
#102=DIRECTION('',(1.,0.,0.));
#103=DIRECTION('center_axis',(-1.,0.,0.));
#104=DIRECTION('ref_axis',(0.,-1.,0.));
#105=DIRECTION('center_axis',(1.,0.,0.));
#106=DIRECTION('ref_axis',(0.,-1.,0.));
#107=DIRECTION('center_axis',(-1.,0.,0.));
#108=DIRECTION('ref_axis',(0.,-1.,0.));
#109=DIRECTION('',(-1.,0.,0.));
#110=DIRECTION('center_axis',(-1.,0.,0.));
#111=DIRECTION('ref_axis',(0.,-1.,0.));
#112=DIRECTION('center_axis',(-1.,0.,0.));
#113=DIRECTION('ref_axis',(0.,0.,1.));
#114=DIRECTION('center_axis',(-1.,0.,0.));
#115=DIRECTION('ref_axis',(0.,0.,1.));
#116=CARTESIAN_POINT('',(0.,0.,0.));
#117=CARTESIAN_POINT('Origin',(0.,0.,0.));
#118=CARTESIAN_POINT('',(0.,5.25,6.42939569552361E-16));
#119=CARTESIAN_POINT('Origin',(0.,0.,0.));
#120=CARTESIAN_POINT('',(2.,5.25,6.42939569552361E-16));
#121=CARTESIAN_POINT('',(0.,5.25,6.42939569552361E-16));
#122=CARTESIAN_POINT('Origin',(2.,0.,0.));
#123=CARTESIAN_POINT('Origin',(0.,0.,0.));
#124=CARTESIAN_POINT('',(2.,10.,1.22464679914735E-15));
#125=CARTESIAN_POINT('Origin',(2.,0.,0.));
#126=CARTESIAN_POINT('',(0.,10.,1.22464679914735E-15));
#127=CARTESIAN_POINT('',(0.,10.,1.22464679914735E-15));
#128=CARTESIAN_POINT('Origin',(0.,0.,0.));
#129=CARTESIAN_POINT('Origin',(2.,0.,0.));
#130=CARTESIAN_POINT('Origin',(0.,0.,0.));
#131=UNCERTAINTY_MEASURE_WITH_UNIT(LENGTH_MEASURE(0.01),#135,
'DISTANCE_ACCURACY_VALUE',
'Maximum model space distance between geometric entities at asserted c
onnectivities');
#132=UNCERTAINTY_MEASURE_WITH_UNIT(LENGTH_MEASURE(0.01),#135,
'DISTANCE_ACCURACY_VALUE',
'Maximum model space distance between geometric entities at asserted c
onnectivities');
#133=(
GEOMETRIC_REPRESENTATION_CONTEXT(3)
GLOBAL_UNCERTAINTY_ASSIGNED_CONTEXT((#131))
GLOBAL_UNIT_ASSIGNED_CONTEXT((#135,#137,#138))
REPRESENTATION_CONTEXT('','3D')
);
#134=(
GEOMETRIC_REPRESENTATION_CONTEXT(3)
GLOBAL_UNCERTAINTY_ASSIGNED_CONTEXT((#132))
GLOBAL_UNIT_ASSIGNED_CONTEXT((#135,#137,#138))
REPRESENTATION_CONTEXT('','3D')
);
#135=(
LENGTH_UNIT()
NAMED_UNIT(*)
SI_UNIT(.MILLI.,.METRE.)
);
#136=(
LENGTH_UNIT()
NAMED_UNIT(*)
SI_UNIT(.CENTI.,.METRE.)
);
#137=(
NAMED_UNIT(*)
PLANE_ANGLE_UNIT()
SI_UNIT($,.RADIAN.)
);
#138=(
NAMED_UNIT(*)
SI_UNIT($,.STERADIAN.)
SOLID_ANGLE_UNIT()
);
#139=SHAPE_DEFINITION_REPRESENTATION(#140,#141);
#140=PRODUCT_DEFINITION_SHAPE('',$,#143);
#141=SHAPE_REPRESENTATION('',(#87),#133);
#142=PRODUCT_DEFINITION_CONTEXT('part definition',#147,'design');
#143=PRODUCT_DEFINITION('DIN 125 - A 10,5','DIN 125 - A 10,5',#144,#142);
#144=PRODUCT_DEFINITION_FORMATION('',$,#149);
#145=PRODUCT_RELATED_PRODUCT_CATEGORY('DIN 125 - A 10,5',
'DIN 125 - A 10,5',(#149));
#146=APPLICATION_PROTOCOL_DEFINITION('international standard',
'automotive_design',2009,#147);
#147=APPLICATION_CONTEXT(
'Core Data for Automotive Mechanical Design Process');
#148=PRODUCT_CONTEXT('part definition',#147,'mechanical');
#149=PRODUCT('DIN 125 - A 10,5','DIN 125 - A 10,5','\X2\04280430043904310430\X0\',
(#148));
#150=PRESENTATION_STYLE_ASSIGNMENT((#151));
#151=SURFACE_STYLE_USAGE(.BOTH.,#154);
#152=SURFACE_STYLE_RENDERING_WITH_PROPERTIES($,#158,(#153));
#153=SURFACE_STYLE_TRANSPARENT(0.);
#154=SURFACE_SIDE_STYLE('',(#155,#152));
#155=SURFACE_STYLE_FILL_AREA(#156);
#156=FILL_AREA_STYLE('',(#157));
#157=FILL_AREA_STYLE_COLOUR('',#158);
#158=COLOUR_RGB('',0.745098039215686,0.737254901960784,0.729411764705882);
ENDSEC;
END-ISO-10303-21;
