ISO-10303-21;
HEADER;
/* Generated by software containing ST-Developer
 * from STEP Tools, Inc. (www.steptools.com) 
 */

FILE_DESCRIPTION(
/* description */ (''),
/* implementation_level */ '2;1');

FILE_NAME(
/* name */ '',
/* time_stamp */ '2023-05-15T11:23:21+03:00',
/* author */ ('Man88'),
/* organization */ (''),
/* preprocessor_version */ 'ST-DEVELOPER v19.2',
/* originating_system */ 'Autodesk Inventor 2023',
/* authorisation */ '');

FILE_SCHEMA (('AUTOMOTIVE_DESIGN { 1 0 10303 214 3 1 1 }'));
ENDSEC;

DATA;
#10=MECHANICAL_DESIGN_GEOMETRIC_PRESENTATION_REPRESENTATION('',(#264,#265,
#266,#267,#268,#269,#270,#271,#272,#273,#274,#275,#276,#277,#278),#482);
#11=SHAPE_REPRESENTATION_RELATIONSHIP('SRR','None',#489,#12);
#12=ADVANCED_BREP_SHAPE_REPRESENTATION('',(#13),#481);
#13=MANIFOLD_SOLID_BREP('\X2\04220432043504400434043E0435\X0\ \X2\04420435043B043E\X0\1',
#293);
#14=CYLINDRICAL_SURFACE('',#328,6.5);
#15=CYLINDRICAL_SURFACE('',#333,6.5);
#16=FACE_BOUND('',#40,.T.);
#17=FACE_BOUND('',#42,.T.);
#18=FACE_BOUND('',#48,.T.);
#19=FACE_BOUND('',#53,.T.);
#20=CIRCLE('',#318,6.5);
#21=CIRCLE('',#320,6.5);
#22=CIRCLE('',#326,6.5);
#23=CIRCLE('',#329,6.5);
#24=FACE_OUTER_BOUND('',#38,.T.);
#25=FACE_OUTER_BOUND('',#39,.T.);
#26=FACE_OUTER_BOUND('',#41,.T.);
#27=FACE_OUTER_BOUND('',#43,.T.);
#28=FACE_OUTER_BOUND('',#44,.T.);
#29=FACE_OUTER_BOUND('',#45,.T.);
#30=FACE_OUTER_BOUND('',#46,.T.);
#31=FACE_OUTER_BOUND('',#47,.T.);
#32=FACE_OUTER_BOUND('',#49,.T.);
#33=FACE_OUTER_BOUND('',#50,.T.);
#34=FACE_OUTER_BOUND('',#51,.T.);
#35=FACE_OUTER_BOUND('',#52,.T.);
#36=FACE_OUTER_BOUND('',#54,.T.);
#37=FACE_OUTER_BOUND('',#55,.T.);
#38=EDGE_LOOP('',(#180,#181,#182,#183,#184,#185));
#39=EDGE_LOOP('',(#186,#187,#188,#189,#190,#191));
#40=EDGE_LOOP('',(#192));
#41=EDGE_LOOP('',(#193,#194,#195,#196,#197,#198));
#42=EDGE_LOOP('',(#199));
#43=EDGE_LOOP('',(#200,#201,#202,#203));
#44=EDGE_LOOP('',(#204,#205,#206,#207));
#45=EDGE_LOOP('',(#208,#209,#210,#211));
#46=EDGE_LOOP('',(#212,#213,#214,#215));
#47=EDGE_LOOP('',(#216,#217,#218,#219,#220,#221));
#48=EDGE_LOOP('',(#222));
#49=EDGE_LOOP('',(#223,#224,#225,#226));
#50=EDGE_LOOP('',(#227,#228,#229,#230));
#51=EDGE_LOOP('',(#231,#232,#233,#234,#235,#236));
#52=EDGE_LOOP('',(#237,#238,#239,#240,#241,#242));
#53=EDGE_LOOP('',(#243));
#54=EDGE_LOOP('',(#244,#245,#246,#247));
#55=EDGE_LOOP('',(#248,#249,#250,#251));
#56=LINE('',#408,#88);
#57=LINE('',#410,#89);
#58=LINE('',#412,#90);
#59=LINE('',#414,#91);
#60=LINE('',#416,#92);
#61=LINE('',#417,#93);
#62=LINE('',#420,#94);
#63=LINE('',#422,#95);
#64=LINE('',#424,#96);
#65=LINE('',#426,#97);
#66=LINE('',#427,#98);
#67=LINE('',#432,#99);
#68=LINE('',#434,#100);
#69=LINE('',#436,#101);
#70=LINE('',#437,#102);
#71=LINE('',#443,#103);
#72=LINE('',#444,#104);
#73=LINE('',#445,#105);
#74=LINE('',#448,#106);
#75=LINE('',#450,#107);
#76=LINE('',#451,#108);
#77=LINE('',#453,#109);
#78=LINE('',#456,#110);
#79=LINE('',#457,#111);
#80=LINE('',#459,#112);
#81=LINE('',#461,#113);
#82=LINE('',#463,#114);
#83=LINE('',#464,#115);
#84=LINE('',#471,#116);
#85=LINE('',#473,#117);
#86=LINE('',#474,#118);
#87=LINE('',#478,#119);
#88=VECTOR('',#338,10.);
#89=VECTOR('',#339,10.);
#90=VECTOR('',#340,10.);
#91=VECTOR('',#341,10.);
#92=VECTOR('',#342,10.);
#93=VECTOR('',#343,10.);
#94=VECTOR('',#346,10.);
#95=VECTOR('',#347,10.);
#96=VECTOR('',#348,10.);
#97=VECTOR('',#349,10.);
#98=VECTOR('',#350,10.);
#99=VECTOR('',#355,5.76000000000001);
#100=VECTOR('',#356,10.);
#101=VECTOR('',#357,5.76000000000001);
#102=VECTOR('',#358,10.);
#103=VECTOR('',#363,10.);
#104=VECTOR('',#364,10.);
#105=VECTOR('',#365,10.);
#106=VECTOR('',#368,10.);
#107=VECTOR('',#369,10.);
#108=VECTOR('',#370,10.);
#109=VECTOR('',#373,10.);
#110=VECTOR('',#376,5.76);
#111=VECTOR('',#377,10.);
#112=VECTOR('',#380,10.);
#113=VECTOR('',#381,10.);
#114=VECTOR('',#382,10.);
#115=VECTOR('',#383,10.);
#116=VECTOR('',#392,6.5);
#117=VECTOR('',#395,10.);
#118=VECTOR('',#396,10.);
#119=VECTOR('',#403,6.5);
#120=VERTEX_POINT('',#406);
#121=VERTEX_POINT('',#407);
#122=VERTEX_POINT('',#409);
#123=VERTEX_POINT('',#411);
#124=VERTEX_POINT('',#413);
#125=VERTEX_POINT('',#415);
#126=VERTEX_POINT('',#419);
#127=VERTEX_POINT('',#421);
#128=VERTEX_POINT('',#423);
#129=VERTEX_POINT('',#425);
#130=VERTEX_POINT('',#428);
#131=VERTEX_POINT('',#431);
#132=VERTEX_POINT('',#433);
#133=VERTEX_POINT('',#435);
#134=VERTEX_POINT('',#438);
#135=VERTEX_POINT('',#441);
#136=VERTEX_POINT('',#442);
#137=VERTEX_POINT('',#447);
#138=VERTEX_POINT('',#449);
#139=VERTEX_POINT('',#455);
#140=VERTEX_POINT('',#460);
#141=VERTEX_POINT('',#462);
#142=VERTEX_POINT('',#465);
#143=VERTEX_POINT('',#469);
#144=EDGE_CURVE('',#120,#121,#56,.T.);
#145=EDGE_CURVE('',#122,#120,#57,.T.);
#146=EDGE_CURVE('',#122,#123,#58,.T.);
#147=EDGE_CURVE('',#124,#123,#59,.T.);
#148=EDGE_CURVE('',#125,#124,#60,.T.);
#149=EDGE_CURVE('',#121,#125,#61,.T.);
#150=EDGE_CURVE('',#121,#126,#62,.T.);
#151=EDGE_CURVE('',#127,#126,#63,.T.);
#152=EDGE_CURVE('',#128,#127,#64,.T.);
#153=EDGE_CURVE('',#129,#128,#65,.T.);
#154=EDGE_CURVE('',#129,#120,#66,.T.);
#155=EDGE_CURVE('',#130,#130,#20,.T.);
#156=EDGE_CURVE('',#131,#125,#67,.T.);
#157=EDGE_CURVE('',#131,#132,#68,.T.);
#158=EDGE_CURVE('',#132,#133,#69,.T.);
#159=EDGE_CURVE('',#133,#126,#70,.T.);
#160=EDGE_CURVE('',#134,#134,#21,.T.);
#161=EDGE_CURVE('',#135,#136,#71,.T.);
#162=EDGE_CURVE('',#135,#129,#72,.T.);
#163=EDGE_CURVE('',#136,#128,#73,.T.);
#164=EDGE_CURVE('',#131,#137,#74,.T.);
#165=EDGE_CURVE('',#137,#138,#75,.T.);
#166=EDGE_CURVE('',#132,#138,#76,.T.);
#167=EDGE_CURVE('',#137,#124,#77,.T.);
#168=EDGE_CURVE('',#138,#139,#78,.T.);
#169=EDGE_CURVE('',#139,#133,#79,.T.);
#170=EDGE_CURVE('',#122,#135,#80,.T.);
#171=EDGE_CURVE('',#136,#140,#81,.T.);
#172=EDGE_CURVE('',#140,#141,#82,.T.);
#173=EDGE_CURVE('',#123,#141,#83,.T.);
#174=EDGE_CURVE('',#142,#142,#22,.T.);
#175=EDGE_CURVE('',#143,#143,#23,.T.);
#176=EDGE_CURVE('',#143,#134,#84,.T.);
#177=EDGE_CURVE('',#141,#139,#85,.T.);
#178=EDGE_CURVE('',#127,#140,#86,.T.);
#179=EDGE_CURVE('',#142,#130,#87,.T.);
#180=ORIENTED_EDGE('',*,*,#144,.F.);
#181=ORIENTED_EDGE('',*,*,#145,.F.);
#182=ORIENTED_EDGE('',*,*,#146,.T.);
#183=ORIENTED_EDGE('',*,*,#147,.F.);
#184=ORIENTED_EDGE('',*,*,#148,.F.);
#185=ORIENTED_EDGE('',*,*,#149,.F.);
#186=ORIENTED_EDGE('',*,*,#144,.T.);
#187=ORIENTED_EDGE('',*,*,#150,.T.);
#188=ORIENTED_EDGE('',*,*,#151,.F.);
#189=ORIENTED_EDGE('',*,*,#152,.F.);
#190=ORIENTED_EDGE('',*,*,#153,.F.);
#191=ORIENTED_EDGE('',*,*,#154,.T.);
#192=ORIENTED_EDGE('',*,*,#155,.T.);
#193=ORIENTED_EDGE('',*,*,#149,.T.);
#194=ORIENTED_EDGE('',*,*,#156,.F.);
#195=ORIENTED_EDGE('',*,*,#157,.T.);
#196=ORIENTED_EDGE('',*,*,#158,.T.);
#197=ORIENTED_EDGE('',*,*,#159,.T.);
#198=ORIENTED_EDGE('',*,*,#150,.F.);
#199=ORIENTED_EDGE('',*,*,#160,.T.);
#200=ORIENTED_EDGE('',*,*,#161,.F.);
#201=ORIENTED_EDGE('',*,*,#162,.T.);
#202=ORIENTED_EDGE('',*,*,#153,.T.);
#203=ORIENTED_EDGE('',*,*,#163,.F.);
#204=ORIENTED_EDGE('',*,*,#157,.F.);
#205=ORIENTED_EDGE('',*,*,#164,.T.);
#206=ORIENTED_EDGE('',*,*,#165,.T.);
#207=ORIENTED_EDGE('',*,*,#166,.F.);
#208=ORIENTED_EDGE('',*,*,#156,.T.);
#209=ORIENTED_EDGE('',*,*,#148,.T.);
#210=ORIENTED_EDGE('',*,*,#167,.F.);
#211=ORIENTED_EDGE('',*,*,#164,.F.);
#212=ORIENTED_EDGE('',*,*,#168,.T.);
#213=ORIENTED_EDGE('',*,*,#169,.T.);
#214=ORIENTED_EDGE('',*,*,#158,.F.);
#215=ORIENTED_EDGE('',*,*,#166,.T.);
#216=ORIENTED_EDGE('',*,*,#146,.F.);
#217=ORIENTED_EDGE('',*,*,#170,.T.);
#218=ORIENTED_EDGE('',*,*,#161,.T.);
#219=ORIENTED_EDGE('',*,*,#171,.T.);
#220=ORIENTED_EDGE('',*,*,#172,.T.);
#221=ORIENTED_EDGE('',*,*,#173,.F.);
#222=ORIENTED_EDGE('',*,*,#174,.T.);
#223=ORIENTED_EDGE('',*,*,#170,.F.);
#224=ORIENTED_EDGE('',*,*,#145,.T.);
#225=ORIENTED_EDGE('',*,*,#154,.F.);
#226=ORIENTED_EDGE('',*,*,#162,.F.);
#227=ORIENTED_EDGE('',*,*,#175,.F.);
#228=ORIENTED_EDGE('',*,*,#176,.T.);
#229=ORIENTED_EDGE('',*,*,#160,.F.);
#230=ORIENTED_EDGE('',*,*,#176,.F.);
#231=ORIENTED_EDGE('',*,*,#151,.T.);
#232=ORIENTED_EDGE('',*,*,#159,.F.);
#233=ORIENTED_EDGE('',*,*,#169,.F.);
#234=ORIENTED_EDGE('',*,*,#177,.F.);
#235=ORIENTED_EDGE('',*,*,#172,.F.);
#236=ORIENTED_EDGE('',*,*,#178,.F.);
#237=ORIENTED_EDGE('',*,*,#177,.T.);
#238=ORIENTED_EDGE('',*,*,#168,.F.);
#239=ORIENTED_EDGE('',*,*,#165,.F.);
#240=ORIENTED_EDGE('',*,*,#167,.T.);
#241=ORIENTED_EDGE('',*,*,#147,.T.);
#242=ORIENTED_EDGE('',*,*,#173,.T.);
#243=ORIENTED_EDGE('',*,*,#175,.T.);
#244=ORIENTED_EDGE('',*,*,#152,.T.);
#245=ORIENTED_EDGE('',*,*,#178,.T.);
#246=ORIENTED_EDGE('',*,*,#171,.F.);
#247=ORIENTED_EDGE('',*,*,#163,.T.);
#248=ORIENTED_EDGE('',*,*,#174,.F.);
#249=ORIENTED_EDGE('',*,*,#179,.T.);
#250=ORIENTED_EDGE('',*,*,#155,.F.);
#251=ORIENTED_EDGE('',*,*,#179,.F.);
#252=PLANE('',#316);
#253=PLANE('',#317);
#254=PLANE('',#319);
#255=PLANE('',#321);
#256=PLANE('',#322);
#257=PLANE('',#323);
#258=PLANE('',#324);
#259=PLANE('',#325);
#260=PLANE('',#327);
#261=PLANE('',#330);
#262=PLANE('',#331);
#263=PLANE('',#332);
#264=STYLED_ITEM('',(#499),#279);
#265=STYLED_ITEM('',(#499),#280);
#266=STYLED_ITEM('',(#499),#281);
#267=STYLED_ITEM('',(#499),#282);
#268=STYLED_ITEM('',(#499),#283);
#269=STYLED_ITEM('',(#499),#284);
#270=STYLED_ITEM('',(#499),#285);
#271=STYLED_ITEM('',(#499),#286);
#272=STYLED_ITEM('',(#499),#287);
#273=STYLED_ITEM('',(#499),#288);
#274=STYLED_ITEM('',(#499),#289);
#275=STYLED_ITEM('',(#499),#290);
#276=STYLED_ITEM('',(#499),#291);
#277=STYLED_ITEM('',(#499),#292);
#278=STYLED_ITEM('',(#498),#13);
#279=ADVANCED_FACE('',(#24),#252,.T.);
#280=ADVANCED_FACE('',(#25,#16),#253,.T.);
#281=ADVANCED_FACE('',(#26,#17),#254,.T.);
#282=ADVANCED_FACE('',(#27),#255,.T.);
#283=ADVANCED_FACE('',(#28),#256,.T.);
#284=ADVANCED_FACE('',(#29),#257,.T.);
#285=ADVANCED_FACE('',(#30),#258,.T.);
#286=ADVANCED_FACE('',(#31,#18),#259,.F.);
#287=ADVANCED_FACE('',(#32),#260,.T.);
#288=ADVANCED_FACE('',(#33),#14,.F.);
#289=ADVANCED_FACE('',(#34),#261,.T.);
#290=ADVANCED_FACE('',(#35,#19),#262,.F.);
#291=ADVANCED_FACE('',(#36),#263,.T.);
#292=ADVANCED_FACE('',(#37),#15,.F.);
#293=CLOSED_SHELL('',(#279,#280,#281,#282,#283,#284,#285,#286,#287,#288,
#289,#290,#291,#292));
#294=DERIVED_UNIT_ELEMENT(#297,1.);
#295=DERIVED_UNIT_ELEMENT(#484,-3.);
#296=DIMENSIONAL_EXPONENTS(0.,1.,0.,0.,0.,0.,0.);
#297=(
CONVERSION_BASED_UNIT('gram',#299)
MASS_UNIT()
NAMED_UNIT(#296)
);
#298=(
MASS_UNIT()
NAMED_UNIT(*)
SI_UNIT(.KILO.,.GRAM.)
);
#299=MASS_MEASURE_WITH_UNIT(MASS_MEASURE(0.001),#298);
#300=DERIVED_UNIT((#294,#295));
#301=MEASURE_REPRESENTATION_ITEM('density measure',
POSITIVE_RATIO_MEASURE(7.872),#300);
#302=PROPERTY_DEFINITION_REPRESENTATION(#307,#304);
#303=PROPERTY_DEFINITION_REPRESENTATION(#308,#305);
#304=REPRESENTATION('material name',(#306),#481);
#305=REPRESENTATION('density',(#301),#481);
#306=DESCRIPTIVE_REPRESENTATION_ITEM(
'\X2\042104420430043B044C\X0\ AISI 1008 91, \X2\0433043E0440044F04470435043A043004420430043D0430044F\X0\',
'\X2\042104420430043B044C\X0\ AISI 1008 91, \X2\0433043E0440044F04470435043A043004420430043D0430044F\X0\');
#307=PROPERTY_DEFINITION('material property','material name',#491);
#308=PROPERTY_DEFINITION('material property','density of part',#491);
#309=DATE_TIME_ROLE('creation_date');
#310=APPLIED_DATE_AND_TIME_ASSIGNMENT(#311,#309,(#491));
#311=DATE_AND_TIME(#312,#313);
#312=CALENDAR_DATE(2019,14,5);
#313=LOCAL_TIME(0,0,0.,#314);
#314=COORDINATED_UNIVERSAL_TIME_OFFSET(0,0,.BEHIND.);
#315=AXIS2_PLACEMENT_3D('',#404,#334,#335);
#316=AXIS2_PLACEMENT_3D('',#405,#336,#337);
#317=AXIS2_PLACEMENT_3D('',#418,#344,#345);
#318=AXIS2_PLACEMENT_3D('',#429,#351,#352);
#319=AXIS2_PLACEMENT_3D('',#430,#353,#354);
#320=AXIS2_PLACEMENT_3D('',#439,#359,#360);
#321=AXIS2_PLACEMENT_3D('',#440,#361,#362);
#322=AXIS2_PLACEMENT_3D('',#446,#366,#367);
#323=AXIS2_PLACEMENT_3D('',#452,#371,#372);
#324=AXIS2_PLACEMENT_3D('',#454,#374,#375);
#325=AXIS2_PLACEMENT_3D('',#458,#378,#379);
#326=AXIS2_PLACEMENT_3D('',#466,#384,#385);
#327=AXIS2_PLACEMENT_3D('',#467,#386,#387);
#328=AXIS2_PLACEMENT_3D('',#468,#388,#389);
#329=AXIS2_PLACEMENT_3D('',#470,#390,#391);
#330=AXIS2_PLACEMENT_3D('',#472,#393,#394);
#331=AXIS2_PLACEMENT_3D('',#475,#397,#398);
#332=AXIS2_PLACEMENT_3D('',#476,#399,#400);
#333=AXIS2_PLACEMENT_3D('',#477,#401,#402);
#334=DIRECTION('axis',(0.,0.,1.));
#335=DIRECTION('refdir',(1.,0.,0.));
#336=DIRECTION('center_axis',(1.,0.,0.));
#337=DIRECTION('ref_axis',(0.,1.,8.26946079742757E-16));
#338=DIRECTION('',(0.,0.,-1.));
#339=DIRECTION('',(0.,1.,0.));
#340=DIRECTION('',(0.,0.,-1.));
#341=DIRECTION('',(0.,-1.,-7.76137818270353E-16));
#342=DIRECTION('',(0.,8.26946079742757E-16,-1.));
#343=DIRECTION('',(0.,1.,7.76137818270353E-16));
#344=DIRECTION('center_axis',(0.,1.,0.));
#345=DIRECTION('ref_axis',(0.,0.,1.));
#346=DIRECTION('',(-1.,0.,-2.96533927517403E-18));
#347=DIRECTION('',(0.,0.,-1.));
#348=DIRECTION('',(0.,0.,-1.));
#349=DIRECTION('',(-1.,0.,0.));
#350=DIRECTION('',(0.,0.,-1.));
#351=DIRECTION('center_axis',(0.,-1.,0.));
#352=DIRECTION('ref_axis',(1.,0.,0.));
#353=DIRECTION('center_axis',(-2.96533927517403E-18,-7.76137818270353E-16,
1.));
#354=DIRECTION('ref_axis',(0.,-1.,-7.76137818270353E-16));
#355=DIRECTION('',(0.,-1.,-8.88178419700125E-16));
#356=DIRECTION('',(-1.,0.,0.));
#357=DIRECTION('',(0.,-1.,-8.88178419700125E-16));
#358=DIRECTION('',(0.,-1.,-7.76137818270353E-16));
#359=DIRECTION('center_axis',(2.96533927517403E-18,7.76137818270353E-16,
-1.));
#360=DIRECTION('ref_axis',(1.,1.06719996049339E-34,0.));
#361=DIRECTION('center_axis',(0.,0.,1.));
#362=DIRECTION('ref_axis',(1.,0.,0.));
#363=DIRECTION('',(-1.,0.,0.));
#364=DIRECTION('',(0.,1.,0.));
#365=DIRECTION('',(0.,1.,0.));
#366=DIRECTION('center_axis',(0.,1.,8.26946079742758E-16));
#367=DIRECTION('ref_axis',(-1.,0.,0.));
#368=DIRECTION('',(0.,8.26946079742757E-16,-1.));
#369=DIRECTION('',(-1.,0.,0.));
#370=DIRECTION('',(0.,8.26946079742757E-16,-1.));
#371=DIRECTION('center_axis',(1.,0.,0.));
#372=DIRECTION('ref_axis',(0.,1.,8.26946079742757E-16));
#373=DIRECTION('',(0.,-1.,-7.76137818270353E-16));
#374=DIRECTION('center_axis',(-1.,0.,0.));
#375=DIRECTION('ref_axis',(0.,-1.,-8.26946079742757E-16));
#376=DIRECTION('',(0.,-1.,-8.88178419700125E-16));
#377=DIRECTION('',(0.,-8.26946079742757E-16,1.));
#378=DIRECTION('center_axis',(0.,1.,0.));
#379=DIRECTION('ref_axis',(0.,0.,1.));
#380=DIRECTION('',(0.,0.,1.));
#381=DIRECTION('',(0.,0.,-1.));
#382=DIRECTION('',(0.,0.,-1.));
#383=DIRECTION('',(-1.,0.,2.96533927517403E-18));
#384=DIRECTION('center_axis',(0.,1.,0.));
#385=DIRECTION('ref_axis',(1.,0.,0.));
#386=DIRECTION('center_axis',(1.,0.,0.));
#387=DIRECTION('ref_axis',(0.,1.,8.26946079742757E-16));
#388=DIRECTION('center_axis',(0.,-7.40148683083427E-16,1.));
#389=DIRECTION('ref_axis',(1.,1.06719996049339E-34,0.));
#390=DIRECTION('center_axis',(2.96533927517403E-18,-7.76137818270353E-16,
1.));
#391=DIRECTION('ref_axis',(1.,1.06719996049339E-34,0.));
#392=DIRECTION('',(0.,-7.40148683083427E-16,1.));
#393=DIRECTION('center_axis',(-1.,0.,0.));
#394=DIRECTION('ref_axis',(0.,-1.,-8.26946079742757E-16));
#395=DIRECTION('',(0.,1.,7.76137818270353E-16));
#396=DIRECTION('',(0.,-1.,0.));
#397=DIRECTION('center_axis',(2.96533927517403E-18,-7.76137818270353E-16,
1.));
#398=DIRECTION('ref_axis',(0.,-1.,-7.76137818270353E-16));
#399=DIRECTION('center_axis',(-1.,0.,0.));
#400=DIRECTION('ref_axis',(0.,-1.,-8.26946079742757E-16));
#401=DIRECTION('center_axis',(0.,1.,0.));
#402=DIRECTION('ref_axis',(1.,0.,0.));
#403=DIRECTION('',(0.,1.,0.));
#404=CARTESIAN_POINT('',(0.,0.,0.));
#405=CARTESIAN_POINT('Origin',(0.,8.00000000000001,-46.));
#406=CARTESIAN_POINT('',(0.,4.,-42.));
#407=CARTESIAN_POINT('',(0.,4.,-46.));
#408=CARTESIAN_POINT('',(0.,4.,-35.5));
#409=CARTESIAN_POINT('',(0.,-5.55111512312578E-16,-42.));
#410=CARTESIAN_POINT('',(0.,2.,-42.));
#411=CARTESIAN_POINT('',(0.,0.,-50.));
#412=CARTESIAN_POINT('',(0.,0.,-35.5));
#413=CARTESIAN_POINT('',(0.,8.00000000000001,-50.));
#414=CARTESIAN_POINT('',(0.,16.2380532894154,-50.));
#415=CARTESIAN_POINT('',(0.,8.00000000000001,-46.));
#416=CARTESIAN_POINT('',(0.,8.00000000000001,-46.88));
#417=CARTESIAN_POINT('',(0.,16.2380532894154,-46.));
#418=CARTESIAN_POINT('Origin',(-20.,4.,-25.));
#419=CARTESIAN_POINT('',(-40.,4.,-46.));
#420=CARTESIAN_POINT('',(-20.,4.,-46.));
#421=CARTESIAN_POINT('',(-40.,4.,-42.));
#422=CARTESIAN_POINT('',(-40.,4.,-35.5));
#423=CARTESIAN_POINT('',(-40.,4.,0.));
#424=CARTESIAN_POINT('',(-40.,4.,0.));
#425=CARTESIAN_POINT('',(0.,4.,0.));
#426=CARTESIAN_POINT('',(0.,4.,0.));
#427=CARTESIAN_POINT('',(0.,4.,-35.5));
#428=CARTESIAN_POINT('',(-26.5,4.,-25.));
#429=CARTESIAN_POINT('Origin',(-20.,4.,-25.));
#430=CARTESIAN_POINT('Origin',(-20.,24.4761065788307,-46.));
#431=CARTESIAN_POINT('',(0.,50.,-46.));
#432=CARTESIAN_POINT('',(0.,-10.0955736846772,-46.));
#433=CARTESIAN_POINT('',(-40.,50.,-46.));
#434=CARTESIAN_POINT('',(0.,50.,-46.));
#435=CARTESIAN_POINT('',(-40.,8.00000000000001,-46.));
#436=CARTESIAN_POINT('',(-40.,-10.0955736846772,-46.));
#437=CARTESIAN_POINT('',(-40.,16.2380532894154,-46.));
#438=CARTESIAN_POINT('',(-26.5,25.,-46.));
#439=CARTESIAN_POINT('Origin',(-20.,25.,-46.));
#440=CARTESIAN_POINT('Origin',(0.,0.,0.));
#441=CARTESIAN_POINT('',(0.,0.,0.));
#442=CARTESIAN_POINT('',(-40.,0.,0.));
#443=CARTESIAN_POINT('',(0.,0.,0.));
#444=CARTESIAN_POINT('',(0.,4.,0.));
#445=CARTESIAN_POINT('',(-40.,4.,0.));
#446=CARTESIAN_POINT('Origin',(0.,50.,-46.));
#447=CARTESIAN_POINT('',(0.,50.,-50.));
#448=CARTESIAN_POINT('',(0.,50.,-46.));
#449=CARTESIAN_POINT('',(-40.,50.,-50.));
#450=CARTESIAN_POINT('',(0.,50.,-50.));
#451=CARTESIAN_POINT('',(-40.,50.,-46.));
#452=CARTESIAN_POINT('Origin',(0.,8.00000000000001,-46.));
#453=CARTESIAN_POINT('',(0.,16.2380532894154,-50.));
#454=CARTESIAN_POINT('Origin',(-40.,8.00000000000001,-46.));
#455=CARTESIAN_POINT('',(-40.,8.00000000000001,-50.));
#456=CARTESIAN_POINT('',(-40.,-10.0955736846772,-50.));
#457=CARTESIAN_POINT('',(-40.,8.00000000000001,-46.88));
#458=CARTESIAN_POINT('Origin',(-20.,0.,-25.));
#459=CARTESIAN_POINT('',(0.,0.,-50.));
#460=CARTESIAN_POINT('',(-40.,-5.55111512312578E-16,-42.));
#461=CARTESIAN_POINT('',(-40.,0.,0.));
#462=CARTESIAN_POINT('',(-40.,0.,-50.));
#463=CARTESIAN_POINT('',(-40.,0.,-35.5));
#464=CARTESIAN_POINT('',(-20.,0.,-50.));
#465=CARTESIAN_POINT('',(-26.5,0.,-25.));
#466=CARTESIAN_POINT('Origin',(-20.,0.,-25.));
#467=CARTESIAN_POINT('Origin',(0.,8.00000000000001,-46.));
#468=CARTESIAN_POINT('Origin',(-20.,25.,-50.));
#469=CARTESIAN_POINT('',(-26.5,25.,-50.));
#470=CARTESIAN_POINT('Origin',(-20.,25.,-50.));
#471=CARTESIAN_POINT('',(-26.5,25.,-50.));
#472=CARTESIAN_POINT('Origin',(-40.,8.00000000000001,-46.));
#473=CARTESIAN_POINT('',(-40.,16.2380532894154,-50.));
#474=CARTESIAN_POINT('',(-40.,2.,-42.));
#475=CARTESIAN_POINT('Origin',(-20.,24.4761065788307,-50.));
#476=CARTESIAN_POINT('Origin',(-40.,8.00000000000001,-46.));
#477=CARTESIAN_POINT('Origin',(-20.,0.,-25.));
#478=CARTESIAN_POINT('',(-26.5,0.,-25.));
#479=UNCERTAINTY_MEASURE_WITH_UNIT(LENGTH_MEASURE(0.01),#483,
'DISTANCE_ACCURACY_VALUE',
'Maximum model space distance between geometric entities at asserted c
onnectivities');
#480=UNCERTAINTY_MEASURE_WITH_UNIT(LENGTH_MEASURE(0.01),#483,
'DISTANCE_ACCURACY_VALUE',
'Maximum model space distance between geometric entities at asserted c
onnectivities');
#481=(
GEOMETRIC_REPRESENTATION_CONTEXT(3)
GLOBAL_UNCERTAINTY_ASSIGNED_CONTEXT((#479))
GLOBAL_UNIT_ASSIGNED_CONTEXT((#483,#485,#486))
REPRESENTATION_CONTEXT('','3D')
);
#482=(
GEOMETRIC_REPRESENTATION_CONTEXT(3)
GLOBAL_UNCERTAINTY_ASSIGNED_CONTEXT((#480))
GLOBAL_UNIT_ASSIGNED_CONTEXT((#483,#485,#486))
REPRESENTATION_CONTEXT('','3D')
);
#483=(
LENGTH_UNIT()
NAMED_UNIT(*)
SI_UNIT(.MILLI.,.METRE.)
);
#484=(
LENGTH_UNIT()
NAMED_UNIT(*)
SI_UNIT(.CENTI.,.METRE.)
);
#485=(
NAMED_UNIT(*)
PLANE_ANGLE_UNIT()
SI_UNIT($,.RADIAN.)
);
#486=(
NAMED_UNIT(*)
SI_UNIT($,.STERADIAN.)
SOLID_ANGLE_UNIT()
);
#487=SHAPE_DEFINITION_REPRESENTATION(#488,#489);
#488=PRODUCT_DEFINITION_SHAPE('',$,#491);
#489=SHAPE_REPRESENTATION('',(#315),#481);
#490=PRODUCT_DEFINITION_CONTEXT('part definition',#495,'design');
#491=PRODUCT_DEFINITION('\X2\04230433043E043B043E043A\X0\ 50\X2\0445\X0\5
0 \X2\043C043C\X0\, U50x50','U50\X2\0445\X0\50',#492,#490);
#492=PRODUCT_DEFINITION_FORMATION('',$,#497);
#493=PRODUCT_RELATED_PRODUCT_CATEGORY('U50\X2\0445\X0\50','U50\X2\0445\X0\5
0',(#497));
#494=APPLICATION_PROTOCOL_DEFINITION('international standard',
'automotive_design',2009,#495);
#495=APPLICATION_CONTEXT(
'Core Data for Automotive Mechanical Design Process');
#496=PRODUCT_CONTEXT('part definition',#495,'mechanical');
#497=PRODUCT('\X2\04230433043E043B043E043A\X0\ 50\X2\0445\X0\50 \X2\043C043C\X0\,
 U50x50','U50\X2\0445\X0\50',$,(#496));
#498=PRESENTATION_STYLE_ASSIGNMENT((#500));
#499=PRESENTATION_STYLE_ASSIGNMENT((#501));
#500=SURFACE_STYLE_USAGE(.BOTH.,#506);
#501=SURFACE_STYLE_USAGE(.BOTH.,#507);
#502=SURFACE_STYLE_RENDERING_WITH_PROPERTIES($,#514,(#504));
#503=SURFACE_STYLE_RENDERING_WITH_PROPERTIES($,#515,(#505));
#504=SURFACE_STYLE_TRANSPARENT(0.);
#505=SURFACE_STYLE_TRANSPARENT(0.);
#506=SURFACE_SIDE_STYLE('',(#508,#502));
#507=SURFACE_SIDE_STYLE('',(#509,#503));
#508=SURFACE_STYLE_FILL_AREA(#510);
#509=SURFACE_STYLE_FILL_AREA(#511);
#510=FILL_AREA_STYLE('',(#512));
#511=FILL_AREA_STYLE('',(#513));
#512=FILL_AREA_STYLE_COLOUR('',#514);
#513=FILL_AREA_STYLE_COLOUR('',#515);
#514=COLOUR_RGB('',0.87843137254902,0.874509803921569,0.858823529411765);
#515=COLOUR_RGB('',0.745098039215686,0.737254901960784,0.729411764705882);
ENDSEC;
END-ISO-10303-21;
