ISO-10303-21;
HEADER;
/* Generated by software containing ST-Developer
 * from STEP Tools, Inc. (www.steptools.com) 
 */

FILE_DESCRIPTION(
/* description */ (''),
/* implementation_level */ '2;1');

FILE_NAME(
/* name */ '308190 USG3.ipt.stp',
/* time_stamp */ '2023-05-16T17:46:25+03:00',
/* author */ ('Man88'),
/* organization */ (''),
/* preprocessor_version */ 'ST-DEVELOPER v19.2',
/* originating_system */ 'Autodesk Inventor 2023',
/* authorisation */ '');

FILE_SCHEMA (('AUTOMOTIVE_DESIGN { 1 0 10303 214 3 1 1 }'));
ENDSEC;

DATA;
#10=MECHANICAL_DESIGN_GEOMETRIC_PRESENTATION_REPRESENTATION('',(#13),#645);
#11=SHAPE_REPRESENTATION_RELATIONSHIP('SRR','None',#652,#12);
#12=ADVANCED_BREP_SHAPE_REPRESENTATION('',(#14),#644);
#13=STYLED_ITEM('',(#661),#14);
#14=MANIFOLD_SOLID_BREP('\X2\04220432043504400434043E0435\X0\ \X2\04420435043B043E\X0\1',
#368);
#15=FACE_BOUND('',#57,.T.);
#16=FACE_BOUND('',#63,.T.);
#17=FACE_BOUND('',#64,.T.);
#18=FACE_BOUND('',#73,.T.);
#19=FACE_BOUND('',#79,.T.);
#20=FACE_BOUND('',#80,.T.);
#21=PLANE('',#394);
#22=PLANE('',#395);
#23=PLANE('',#400);
#24=PLANE('',#404);
#25=PLANE('',#405);
#26=PLANE('',#411);
#27=PLANE('',#417);
#28=PLANE('',#418);
#29=PLANE('',#420);
#30=PLANE('',#422);
#31=PLANE('',#428);
#32=PLANE('',#429);
#33=FACE_OUTER_BOUND('',#54,.T.);
#34=FACE_OUTER_BOUND('',#55,.T.);
#35=FACE_OUTER_BOUND('',#56,.T.);
#36=FACE_OUTER_BOUND('',#58,.T.);
#37=FACE_OUTER_BOUND('',#59,.T.);
#38=FACE_OUTER_BOUND('',#60,.T.);
#39=FACE_OUTER_BOUND('',#61,.T.);
#40=FACE_OUTER_BOUND('',#62,.T.);
#41=FACE_OUTER_BOUND('',#65,.T.);
#42=FACE_OUTER_BOUND('',#66,.T.);
#43=FACE_OUTER_BOUND('',#67,.T.);
#44=FACE_OUTER_BOUND('',#68,.T.);
#45=FACE_OUTER_BOUND('',#69,.T.);
#46=FACE_OUTER_BOUND('',#70,.T.);
#47=FACE_OUTER_BOUND('',#71,.T.);
#48=FACE_OUTER_BOUND('',#72,.T.);
#49=FACE_OUTER_BOUND('',#74,.T.);
#50=FACE_OUTER_BOUND('',#75,.T.);
#51=FACE_OUTER_BOUND('',#76,.T.);
#52=FACE_OUTER_BOUND('',#77,.T.);
#53=FACE_OUTER_BOUND('',#78,.T.);
#54=EDGE_LOOP('',(#240,#241,#242,#243));
#55=EDGE_LOOP('',(#244,#245,#246,#247));
#56=EDGE_LOOP('',(#248,#249,#250,#251,#252,#253));
#57=EDGE_LOOP('',(#254));
#58=EDGE_LOOP('',(#255,#256,#257,#258));
#59=EDGE_LOOP('',(#259,#260,#261,#262));
#60=EDGE_LOOP('',(#263,#264,#265,#266));
#61=EDGE_LOOP('',(#267,#268,#269,#270));
#62=EDGE_LOOP('',(#271,#272,#273,#274,#275,#276));
#63=EDGE_LOOP('',(#277));
#64=EDGE_LOOP('',(#278));
#65=EDGE_LOOP('',(#279,#280,#281,#282));
#66=EDGE_LOOP('',(#283,#284,#285,#286));
#67=EDGE_LOOP('',(#287,#288,#289,#290));
#68=EDGE_LOOP('',(#291,#292,#293,#294));
#69=EDGE_LOOP('',(#295,#296,#297,#298));
#70=EDGE_LOOP('',(#299,#300,#301,#302));
#71=EDGE_LOOP('',(#303,#304,#305,#306));
#72=EDGE_LOOP('',(#307,#308,#309,#310,#311,#312));
#73=EDGE_LOOP('',(#313));
#74=EDGE_LOOP('',(#314,#315,#316,#317));
#75=EDGE_LOOP('',(#318,#319,#320,#321));
#76=EDGE_LOOP('',(#322,#323,#324,#325));
#77=EDGE_LOOP('',(#326,#327,#328,#329));
#78=EDGE_LOOP('',(#330,#331,#332,#333,#334,#335));
#79=EDGE_LOOP('',(#336));
#80=EDGE_LOOP('',(#337));
#81=LINE('',#547,#112);
#82=LINE('',#550,#113);
#83=LINE('',#553,#114);
#84=LINE('',#555,#115);
#85=LINE('',#556,#116);
#86=LINE('',#559,#117);
#87=LINE('',#561,#118);
#88=LINE('',#563,#119);
#89=LINE('',#570,#120);
#90=LINE('',#573,#121);
#91=LINE('',#574,#122);
#92=LINE('',#580,#123);
#93=LINE('',#583,#124);
#94=LINE('',#586,#125);
#95=LINE('',#588,#126);
#96=LINE('',#589,#127);
#97=LINE('',#592,#128);
#98=LINE('',#596,#129);
#99=LINE('',#597,#130);
#100=LINE('',#606,#131);
#101=LINE('',#607,#132);
#102=LINE('',#610,#133);
#103=LINE('',#611,#134);
#104=LINE('',#614,#135);
#105=LINE('',#618,#136);
#106=LINE('',#622,#137);
#107=LINE('',#623,#138);
#108=LINE('',#630,#139);
#109=LINE('',#633,#140);
#110=LINE('',#637,#141);
#111=LINE('',#640,#142);
#112=VECTOR('',#436,10.);
#113=VECTOR('',#439,10.);
#114=VECTOR('',#442,10.);
#115=VECTOR('',#443,10.);
#116=VECTOR('',#444,10.);
#117=VECTOR('',#447,3.76);
#118=VECTOR('',#448,10.);
#119=VECTOR('',#449,3.76);
#120=VECTOR('',#458,10.);
#121=VECTOR('',#461,10.);
#122=VECTOR('',#462,10.);
#123=VECTOR('',#467,10.);
#124=VECTOR('',#470,10.);
#125=VECTOR('',#473,10.);
#126=VECTOR('',#474,10.);
#127=VECTOR('',#475,10.);
#128=VECTOR('',#478,10.);
#129=VECTOR('',#481,10.);
#130=VECTOR('',#482,10.);
#131=VECTOR('',#491,10.);
#132=VECTOR('',#492,10.);
#133=VECTOR('',#495,10.);
#134=VECTOR('',#496,10.);
#135=VECTOR('',#499,7.);
#136=VECTOR('',#504,10.);
#137=VECTOR('',#511,3.76);
#138=VECTOR('',#512,10.);
#139=VECTOR('',#525,10.);
#140=VECTOR('',#528,7.);
#141=VECTOR('',#533,7.);
#142=VECTOR('',#538,10.);
#143=CIRCLE('',#392,3.);
#144=CIRCLE('',#393,3.);
#145=CIRCLE('',#396,3.);
#146=CIRCLE('',#397,7.);
#147=CIRCLE('',#399,3.);
#148=CIRCLE('',#402,3.);
#149=CIRCLE('',#403,3.);
#150=CIRCLE('',#406,3.);
#151=CIRCLE('',#407,7.);
#152=CIRCLE('',#408,7.);
#153=CIRCLE('',#410,3.);
#154=CIRCLE('',#413,7.);
#155=CIRCLE('',#415,6.);
#156=CIRCLE('',#416,6.00000000000001);
#157=CIRCLE('',#419,2.);
#158=CIRCLE('',#421,2.);
#159=CIRCLE('',#425,7.);
#160=CIRCLE('',#427,7.);
#161=VERTEX_POINT('',#543);
#162=VERTEX_POINT('',#544);
#163=VERTEX_POINT('',#546);
#164=VERTEX_POINT('',#548);
#165=VERTEX_POINT('',#552);
#166=VERTEX_POINT('',#554);
#167=VERTEX_POINT('',#558);
#168=VERTEX_POINT('',#560);
#169=VERTEX_POINT('',#562);
#170=VERTEX_POINT('',#565);
#171=VERTEX_POINT('',#568);
#172=VERTEX_POINT('',#572);
#173=VERTEX_POINT('',#576);
#174=VERTEX_POINT('',#577);
#175=VERTEX_POINT('',#579);
#176=VERTEX_POINT('',#581);
#177=VERTEX_POINT('',#585);
#178=VERTEX_POINT('',#587);
#179=VERTEX_POINT('',#591);
#180=VERTEX_POINT('',#593);
#181=VERTEX_POINT('',#595);
#182=VERTEX_POINT('',#598);
#183=VERTEX_POINT('',#600);
#184=VERTEX_POINT('',#603);
#185=VERTEX_POINT('',#604);
#186=VERTEX_POINT('',#609);
#187=VERTEX_POINT('',#613);
#188=VERTEX_POINT('',#617);
#189=VERTEX_POINT('',#632);
#190=VERTEX_POINT('',#636);
#191=EDGE_CURVE('',#161,#162,#143,.T.);
#192=EDGE_CURVE('',#162,#163,#81,.T.);
#193=EDGE_CURVE('',#163,#164,#144,.T.);
#194=EDGE_CURVE('',#164,#161,#82,.T.);
#195=EDGE_CURVE('',#165,#164,#83,.T.);
#196=EDGE_CURVE('',#166,#165,#84,.T.);
#197=EDGE_CURVE('',#166,#161,#85,.T.);
#198=EDGE_CURVE('',#163,#167,#86,.T.);
#199=EDGE_CURVE('',#167,#168,#87,.T.);
#200=EDGE_CURVE('',#169,#168,#88,.T.);
#201=EDGE_CURVE('',#165,#169,#145,.T.);
#202=EDGE_CURVE('',#170,#170,#146,.T.);
#203=EDGE_CURVE('',#171,#166,#147,.T.);
#204=EDGE_CURVE('',#169,#171,#89,.T.);
#205=EDGE_CURVE('',#168,#172,#90,.T.);
#206=EDGE_CURVE('',#172,#171,#91,.T.);
#207=EDGE_CURVE('',#173,#174,#148,.T.);
#208=EDGE_CURVE('',#174,#175,#92,.T.);
#209=EDGE_CURVE('',#175,#176,#149,.T.);
#210=EDGE_CURVE('',#176,#173,#93,.T.);
#211=EDGE_CURVE('',#176,#177,#94,.T.);
#212=EDGE_CURVE('',#177,#178,#95,.T.);
#213=EDGE_CURVE('',#178,#173,#96,.T.);
#214=EDGE_CURVE('',#179,#175,#97,.T.);
#215=EDGE_CURVE('',#180,#179,#150,.T.);
#216=EDGE_CURVE('',#181,#180,#98,.T.);
#217=EDGE_CURVE('',#181,#177,#99,.T.);
#218=EDGE_CURVE('',#182,#182,#151,.T.);
#219=EDGE_CURVE('',#183,#183,#152,.T.);
#220=EDGE_CURVE('',#184,#185,#153,.T.);
#221=EDGE_CURVE('',#185,#180,#100,.T.);
#222=EDGE_CURVE('',#179,#184,#101,.T.);
#223=EDGE_CURVE('',#185,#186,#102,.T.);
#224=EDGE_CURVE('',#186,#181,#103,.T.);
#225=EDGE_CURVE('',#170,#187,#104,.T.);
#226=EDGE_CURVE('',#187,#187,#154,.T.);
#227=EDGE_CURVE('',#172,#188,#105,.T.);
#228=EDGE_CURVE('',#177,#172,#155,.T.);
#229=EDGE_CURVE('',#188,#181,#156,.T.);
#230=EDGE_CURVE('',#162,#188,#106,.T.);
#231=EDGE_CURVE('',#188,#167,#107,.T.);
#232=EDGE_CURVE('',#168,#178,#157,.T.);
#233=EDGE_CURVE('',#167,#186,#158,.T.);
#234=EDGE_CURVE('',#178,#186,#108,.T.);
#235=EDGE_CURVE('',#183,#189,#109,.T.);
#236=EDGE_CURVE('',#189,#189,#159,.T.);
#237=EDGE_CURVE('',#182,#190,#110,.T.);
#238=EDGE_CURVE('',#190,#190,#160,.T.);
#239=EDGE_CURVE('',#174,#184,#111,.T.);
#240=ORIENTED_EDGE('',*,*,#191,.T.);
#241=ORIENTED_EDGE('',*,*,#192,.T.);
#242=ORIENTED_EDGE('',*,*,#193,.T.);
#243=ORIENTED_EDGE('',*,*,#194,.T.);
#244=ORIENTED_EDGE('',*,*,#194,.F.);
#245=ORIENTED_EDGE('',*,*,#195,.F.);
#246=ORIENTED_EDGE('',*,*,#196,.F.);
#247=ORIENTED_EDGE('',*,*,#197,.T.);
#248=ORIENTED_EDGE('',*,*,#193,.F.);
#249=ORIENTED_EDGE('',*,*,#198,.T.);
#250=ORIENTED_EDGE('',*,*,#199,.T.);
#251=ORIENTED_EDGE('',*,*,#200,.F.);
#252=ORIENTED_EDGE('',*,*,#201,.F.);
#253=ORIENTED_EDGE('',*,*,#195,.T.);
#254=ORIENTED_EDGE('',*,*,#202,.T.);
#255=ORIENTED_EDGE('',*,*,#203,.T.);
#256=ORIENTED_EDGE('',*,*,#196,.T.);
#257=ORIENTED_EDGE('',*,*,#201,.T.);
#258=ORIENTED_EDGE('',*,*,#204,.T.);
#259=ORIENTED_EDGE('',*,*,#204,.F.);
#260=ORIENTED_EDGE('',*,*,#200,.T.);
#261=ORIENTED_EDGE('',*,*,#205,.T.);
#262=ORIENTED_EDGE('',*,*,#206,.T.);
#263=ORIENTED_EDGE('',*,*,#207,.T.);
#264=ORIENTED_EDGE('',*,*,#208,.T.);
#265=ORIENTED_EDGE('',*,*,#209,.T.);
#266=ORIENTED_EDGE('',*,*,#210,.T.);
#267=ORIENTED_EDGE('',*,*,#210,.F.);
#268=ORIENTED_EDGE('',*,*,#211,.T.);
#269=ORIENTED_EDGE('',*,*,#212,.T.);
#270=ORIENTED_EDGE('',*,*,#213,.T.);
#271=ORIENTED_EDGE('',*,*,#209,.F.);
#272=ORIENTED_EDGE('',*,*,#214,.F.);
#273=ORIENTED_EDGE('',*,*,#215,.F.);
#274=ORIENTED_EDGE('',*,*,#216,.F.);
#275=ORIENTED_EDGE('',*,*,#217,.T.);
#276=ORIENTED_EDGE('',*,*,#211,.F.);
#277=ORIENTED_EDGE('',*,*,#218,.T.);
#278=ORIENTED_EDGE('',*,*,#219,.T.);
#279=ORIENTED_EDGE('',*,*,#220,.T.);
#280=ORIENTED_EDGE('',*,*,#221,.T.);
#281=ORIENTED_EDGE('',*,*,#215,.T.);
#282=ORIENTED_EDGE('',*,*,#222,.T.);
#283=ORIENTED_EDGE('',*,*,#221,.F.);
#284=ORIENTED_EDGE('',*,*,#223,.T.);
#285=ORIENTED_EDGE('',*,*,#224,.T.);
#286=ORIENTED_EDGE('',*,*,#216,.T.);
#287=ORIENTED_EDGE('',*,*,#202,.F.);
#288=ORIENTED_EDGE('',*,*,#225,.T.);
#289=ORIENTED_EDGE('',*,*,#226,.F.);
#290=ORIENTED_EDGE('',*,*,#225,.F.);
#291=ORIENTED_EDGE('',*,*,#227,.F.);
#292=ORIENTED_EDGE('',*,*,#228,.F.);
#293=ORIENTED_EDGE('',*,*,#217,.F.);
#294=ORIENTED_EDGE('',*,*,#229,.F.);
#295=ORIENTED_EDGE('',*,*,#192,.F.);
#296=ORIENTED_EDGE('',*,*,#230,.T.);
#297=ORIENTED_EDGE('',*,*,#231,.T.);
#298=ORIENTED_EDGE('',*,*,#198,.F.);
#299=ORIENTED_EDGE('',*,*,#205,.F.);
#300=ORIENTED_EDGE('',*,*,#232,.T.);
#301=ORIENTED_EDGE('',*,*,#212,.F.);
#302=ORIENTED_EDGE('',*,*,#228,.T.);
#303=ORIENTED_EDGE('',*,*,#231,.F.);
#304=ORIENTED_EDGE('',*,*,#229,.T.);
#305=ORIENTED_EDGE('',*,*,#224,.F.);
#306=ORIENTED_EDGE('',*,*,#233,.F.);
#307=ORIENTED_EDGE('',*,*,#191,.F.);
#308=ORIENTED_EDGE('',*,*,#197,.F.);
#309=ORIENTED_EDGE('',*,*,#203,.F.);
#310=ORIENTED_EDGE('',*,*,#206,.F.);
#311=ORIENTED_EDGE('',*,*,#227,.T.);
#312=ORIENTED_EDGE('',*,*,#230,.F.);
#313=ORIENTED_EDGE('',*,*,#226,.T.);
#314=ORIENTED_EDGE('',*,*,#199,.F.);
#315=ORIENTED_EDGE('',*,*,#233,.T.);
#316=ORIENTED_EDGE('',*,*,#234,.F.);
#317=ORIENTED_EDGE('',*,*,#232,.F.);
#318=ORIENTED_EDGE('',*,*,#219,.F.);
#319=ORIENTED_EDGE('',*,*,#235,.T.);
#320=ORIENTED_EDGE('',*,*,#236,.F.);
#321=ORIENTED_EDGE('',*,*,#235,.F.);
#322=ORIENTED_EDGE('',*,*,#218,.F.);
#323=ORIENTED_EDGE('',*,*,#237,.T.);
#324=ORIENTED_EDGE('',*,*,#238,.F.);
#325=ORIENTED_EDGE('',*,*,#237,.F.);
#326=ORIENTED_EDGE('',*,*,#208,.F.);
#327=ORIENTED_EDGE('',*,*,#239,.T.);
#328=ORIENTED_EDGE('',*,*,#222,.F.);
#329=ORIENTED_EDGE('',*,*,#214,.T.);
#330=ORIENTED_EDGE('',*,*,#207,.F.);
#331=ORIENTED_EDGE('',*,*,#213,.F.);
#332=ORIENTED_EDGE('',*,*,#234,.T.);
#333=ORIENTED_EDGE('',*,*,#223,.F.);
#334=ORIENTED_EDGE('',*,*,#220,.F.);
#335=ORIENTED_EDGE('',*,*,#239,.F.);
#336=ORIENTED_EDGE('',*,*,#236,.T.);
#337=ORIENTED_EDGE('',*,*,#238,.T.);
#338=CYLINDRICAL_SURFACE('',#391,3.);
#339=CYLINDRICAL_SURFACE('',#398,3.);
#340=CYLINDRICAL_SURFACE('',#401,3.);
#341=CYLINDRICAL_SURFACE('',#409,3.);
#342=CYLINDRICAL_SURFACE('',#412,7.);
#343=CYLINDRICAL_SURFACE('',#414,6.);
#344=CYLINDRICAL_SURFACE('',#423,2.);
#345=CYLINDRICAL_SURFACE('',#424,7.);
#346=CYLINDRICAL_SURFACE('',#426,7.);
#347=ADVANCED_FACE('',(#33),#338,.T.);
#348=ADVANCED_FACE('',(#34),#21,.T.);
#349=ADVANCED_FACE('',(#35,#15),#22,.T.);
#350=ADVANCED_FACE('',(#36),#339,.T.);
#351=ADVANCED_FACE('',(#37),#23,.T.);
#352=ADVANCED_FACE('',(#38),#340,.T.);
#353=ADVANCED_FACE('',(#39),#24,.T.);
#354=ADVANCED_FACE('',(#40,#16,#17),#25,.F.);
#355=ADVANCED_FACE('',(#41),#341,.T.);
#356=ADVANCED_FACE('',(#42),#26,.T.);
#357=ADVANCED_FACE('',(#43),#342,.F.);
#358=ADVANCED_FACE('',(#44),#343,.T.);
#359=ADVANCED_FACE('',(#45),#27,.T.);
#360=ADVANCED_FACE('',(#46),#28,.T.);
#361=ADVANCED_FACE('',(#47),#29,.T.);
#362=ADVANCED_FACE('',(#48,#18),#30,.F.);
#363=ADVANCED_FACE('',(#49),#344,.F.);
#364=ADVANCED_FACE('',(#50),#345,.F.);
#365=ADVANCED_FACE('',(#51),#346,.F.);
#366=ADVANCED_FACE('',(#52),#31,.T.);
#367=ADVANCED_FACE('',(#53,#19,#20),#32,.T.);
#368=CLOSED_SHELL('',(#347,#348,#349,#350,#351,#352,#353,#354,#355,#356,
#357,#358,#359,#360,#361,#362,#363,#364,#365,#366,#367));
#369=DERIVED_UNIT_ELEMENT(#372,1.);
#370=DERIVED_UNIT_ELEMENT(#647,-3.);
#371=DIMENSIONAL_EXPONENTS(0.,1.,0.,0.,0.,0.,0.);
#372=(
CONVERSION_BASED_UNIT('gram',#374)
MASS_UNIT()
NAMED_UNIT(#371)
);
#373=(
MASS_UNIT()
NAMED_UNIT(*)
SI_UNIT(.KILO.,.GRAM.)
);
#374=MASS_MEASURE_WITH_UNIT(MASS_MEASURE(0.001),#373);
#375=DERIVED_UNIT((#369,#370));
#376=MEASURE_REPRESENTATION_ITEM('density measure',
POSITIVE_RATIO_MEASURE(1.),#375);
#377=PROPERTY_DEFINITION_REPRESENTATION(#382,#379);
#378=PROPERTY_DEFINITION_REPRESENTATION(#383,#380);
#379=REPRESENTATION('material name',(#381),#644);
#380=REPRESENTATION('density',(#376),#644);
#381=DESCRIPTIVE_REPRESENTATION_ITEM('\X2\04220438043F043E0432044B0435\X0\',
'\X2\04220438043F043E0432044B0435\X0\');
#382=PROPERTY_DEFINITION('material property','material name',#654);
#383=PROPERTY_DEFINITION('material property','density of part',#654);
#384=DATE_TIME_ROLE('creation_date');
#385=APPLIED_DATE_AND_TIME_ASSIGNMENT(#386,#384,(#654));
#386=DATE_AND_TIME(#387,#388);
#387=CALENDAR_DATE(2019,1,7);
#388=LOCAL_TIME(0,0,0.,#389);
#389=COORDINATED_UNIVERSAL_TIME_OFFSET(0,0,.BEHIND.);
#390=AXIS2_PLACEMENT_3D('',#541,#430,#431);
#391=AXIS2_PLACEMENT_3D('',#542,#432,#433);
#392=AXIS2_PLACEMENT_3D('',#545,#434,#435);
#393=AXIS2_PLACEMENT_3D('',#549,#437,#438);
#394=AXIS2_PLACEMENT_3D('',#551,#440,#441);
#395=AXIS2_PLACEMENT_3D('',#557,#445,#446);
#396=AXIS2_PLACEMENT_3D('',#564,#450,#451);
#397=AXIS2_PLACEMENT_3D('',#566,#452,#453);
#398=AXIS2_PLACEMENT_3D('',#567,#454,#455);
#399=AXIS2_PLACEMENT_3D('',#569,#456,#457);
#400=AXIS2_PLACEMENT_3D('',#571,#459,#460);
#401=AXIS2_PLACEMENT_3D('',#575,#463,#464);
#402=AXIS2_PLACEMENT_3D('',#578,#465,#466);
#403=AXIS2_PLACEMENT_3D('',#582,#468,#469);
#404=AXIS2_PLACEMENT_3D('',#584,#471,#472);
#405=AXIS2_PLACEMENT_3D('',#590,#476,#477);
#406=AXIS2_PLACEMENT_3D('',#594,#479,#480);
#407=AXIS2_PLACEMENT_3D('',#599,#483,#484);
#408=AXIS2_PLACEMENT_3D('',#601,#485,#486);
#409=AXIS2_PLACEMENT_3D('',#602,#487,#488);
#410=AXIS2_PLACEMENT_3D('',#605,#489,#490);
#411=AXIS2_PLACEMENT_3D('',#608,#493,#494);
#412=AXIS2_PLACEMENT_3D('',#612,#497,#498);
#413=AXIS2_PLACEMENT_3D('',#615,#500,#501);
#414=AXIS2_PLACEMENT_3D('',#616,#502,#503);
#415=AXIS2_PLACEMENT_3D('',#619,#505,#506);
#416=AXIS2_PLACEMENT_3D('',#620,#507,#508);
#417=AXIS2_PLACEMENT_3D('',#621,#509,#510);
#418=AXIS2_PLACEMENT_3D('',#624,#513,#514);
#419=AXIS2_PLACEMENT_3D('',#625,#515,#516);
#420=AXIS2_PLACEMENT_3D('',#626,#517,#518);
#421=AXIS2_PLACEMENT_3D('',#627,#519,#520);
#422=AXIS2_PLACEMENT_3D('',#628,#521,#522);
#423=AXIS2_PLACEMENT_3D('',#629,#523,#524);
#424=AXIS2_PLACEMENT_3D('',#631,#526,#527);
#425=AXIS2_PLACEMENT_3D('',#634,#529,#530);
#426=AXIS2_PLACEMENT_3D('',#635,#531,#532);
#427=AXIS2_PLACEMENT_3D('',#638,#534,#535);
#428=AXIS2_PLACEMENT_3D('',#639,#536,#537);
#429=AXIS2_PLACEMENT_3D('',#641,#539,#540);
#430=DIRECTION('axis',(0.,0.,1.));
#431=DIRECTION('refdir',(1.,0.,0.));
#432=DIRECTION('center_axis',(-1.,-1.83758917935762E-15,0.));
#433=DIRECTION('ref_axis',(0.,0.707106781186547,0.707106781186548));
#434=DIRECTION('center_axis',(1.,1.72341131809922E-15,5.93067855034806E-18));
#435=DIRECTION('ref_axis',(0.,0.707106781186547,0.707106781186548));
#436=DIRECTION('',(1.,1.83758917935762E-15,0.));
#437=DIRECTION('center_axis',(-1.,-1.72341131809922E-15,5.93067855034806E-18));
#438=DIRECTION('ref_axis',(0.,0.707106781186547,0.707106781186548));
#439=DIRECTION('',(-1.,-1.83758917935762E-15,0.));
#440=DIRECTION('center_axis',(-1.83758917935762E-15,1.,0.));
#441=DIRECTION('ref_axis',(0.,0.,1.));
#442=DIRECTION('',(0.,0.,1.));
#443=DIRECTION('',(1.,1.83758917935762E-15,0.));
#444=DIRECTION('',(0.,0.,1.));
#445=DIRECTION('center_axis',(1.,1.72341131809922E-15,-5.93067855034806E-18));
#446=DIRECTION('ref_axis',(5.93067855034806E-18,1.08981507303679E-32,1.));
#447=DIRECTION('',(1.77635683940025E-15,-1.,0.));
#448=DIRECTION('',(-5.93067855034806E-18,-1.08981507303679E-32,-1.));
#449=DIRECTION('',(1.77635683940025E-15,-1.,0.));
#450=DIRECTION('center_axis',(-1.,-1.72341131809922E-15,5.93067855034806E-18));
#451=DIRECTION('ref_axis',(0.,0.707106781186547,-0.707106781186548));
#452=DIRECTION('center_axis',(-1.,-1.72341131809922E-15,5.93067855034806E-18));
#453=DIRECTION('ref_axis',(0.,-3.14002867517012E-34,1.));
#454=DIRECTION('center_axis',(-1.,-1.83758917935762E-15,0.));
#455=DIRECTION('ref_axis',(0.,0.707106781186547,-0.707106781186548));
#456=DIRECTION('center_axis',(1.,1.72341131809922E-15,5.93067855034806E-18));
#457=DIRECTION('ref_axis',(0.,0.707106781186547,-0.707106781186548));
#458=DIRECTION('',(-1.,-1.83758917935762E-15,0.));
#459=DIRECTION('center_axis',(0.,0.,-1.));
#460=DIRECTION('ref_axis',(-1.83758917935762E-15,1.,0.));
#461=DIRECTION('',(-1.,-1.83758917935762E-15,0.));
#462=DIRECTION('',(-1.83758917935762E-15,1.,0.));
#463=DIRECTION('center_axis',(0.,1.,0.));
#464=DIRECTION('ref_axis',(0.707106781186549,0.,-0.707106781186546));
#465=DIRECTION('center_axis',(0.,-1.,0.));
#466=DIRECTION('ref_axis',(0.707106781186549,0.,-0.707106781186546));
#467=DIRECTION('',(0.,-1.,0.));
#468=DIRECTION('center_axis',(0.,1.,0.));
#469=DIRECTION('ref_axis',(0.707106781186549,0.,-0.707106781186546));
#470=DIRECTION('',(0.,1.,0.));
#471=DIRECTION('center_axis',(0.,0.,-1.));
#472=DIRECTION('ref_axis',(-1.,0.,0.));
#473=DIRECTION('',(-1.,0.,0.));
#474=DIRECTION('',(0.,1.,0.));
#475=DIRECTION('',(1.,0.,0.));
#476=DIRECTION('center_axis',(0.,1.,0.));
#477=DIRECTION('ref_axis',(0.,0.,1.));
#478=DIRECTION('',(0.,0.,-1.));
#479=DIRECTION('center_axis',(0.,1.,0.));
#480=DIRECTION('ref_axis',(0.707106781186548,0.,0.707106781186547));
#481=DIRECTION('',(1.,0.,0.));
#482=DIRECTION('',(0.,0.,-1.));
#483=DIRECTION('center_axis',(0.,1.,0.));
#484=DIRECTION('ref_axis',(1.,0.,0.));
#485=DIRECTION('center_axis',(0.,1.,0.));
#486=DIRECTION('ref_axis',(1.,0.,0.));
#487=DIRECTION('center_axis',(0.,1.,0.));
#488=DIRECTION('ref_axis',(0.707106781186548,0.,0.707106781186547));
#489=DIRECTION('center_axis',(0.,-1.,0.));
#490=DIRECTION('ref_axis',(0.707106781186548,0.,0.707106781186547));
#491=DIRECTION('',(0.,-1.,0.));
#492=DIRECTION('',(0.,1.,0.));
#493=DIRECTION('center_axis',(0.,0.,1.));
#494=DIRECTION('ref_axis',(1.,0.,0.));
#495=DIRECTION('',(-1.,0.,0.));
#496=DIRECTION('',(0.,-1.,0.));
#497=DIRECTION('center_axis',(-1.,-1.77635683940025E-15,0.));
#498=DIRECTION('ref_axis',(0.,-3.14002867517012E-34,1.));
#499=DIRECTION('',(-1.,-1.77635683940025E-15,0.));
#500=DIRECTION('center_axis',(1.,1.72341131809922E-15,5.93067855034806E-18));
#501=DIRECTION('ref_axis',(0.,-3.14002867517012E-34,1.));
#502=DIRECTION('center_axis',(0.,0.,-1.));
#503=DIRECTION('ref_axis',(0.,-1.,0.));
#504=DIRECTION('',(-5.93067855034806E-18,-1.08981507303679E-32,1.));
#505=DIRECTION('center_axis',(0.,0.,-1.));
#506=DIRECTION('ref_axis',(0.,-1.,0.));
#507=DIRECTION('center_axis',(0.,0.,1.));
#508=DIRECTION('ref_axis',(-1.,-1.85037170770859E-15,0.));
#509=DIRECTION('center_axis',(0.,0.,1.));
#510=DIRECTION('ref_axis',(1.83758917935762E-15,-1.,0.));
#511=DIRECTION('',(1.77635683940025E-15,-1.,0.));
#512=DIRECTION('',(1.,1.83758917935762E-15,0.));
#513=DIRECTION('center_axis',(0.,0.,-1.));
#514=DIRECTION('ref_axis',(-1.,0.,0.));
#515=DIRECTION('center_axis',(0.,0.,1.));
#516=DIRECTION('ref_axis',(-1.,-1.66533453693773E-15,0.));
#517=DIRECTION('center_axis',(0.,0.,1.));
#518=DIRECTION('ref_axis',(1.,0.,0.));
#519=DIRECTION('center_axis',(0.,0.,1.));
#520=DIRECTION('ref_axis',(-1.,-1.66533453693773E-15,0.));
#521=DIRECTION('center_axis',(1.,1.72341131809922E-15,5.93067855034806E-18));
#522=DIRECTION('ref_axis',(-5.93067855034806E-18,-1.08981507303679E-32,
1.));
#523=DIRECTION('center_axis',(0.,0.,-1.));
#524=DIRECTION('ref_axis',(0.,-1.,0.));
#525=DIRECTION('',(0.,0.,1.));
#526=DIRECTION('center_axis',(0.,1.,0.));
#527=DIRECTION('ref_axis',(1.,0.,0.));
#528=DIRECTION('',(0.,1.,0.));
#529=DIRECTION('center_axis',(0.,-1.,0.));
#530=DIRECTION('ref_axis',(1.,0.,0.));
#531=DIRECTION('center_axis',(0.,1.,0.));
#532=DIRECTION('ref_axis',(1.,0.,0.));
#533=DIRECTION('',(0.,1.,0.));
#534=DIRECTION('center_axis',(0.,-1.,0.));
#535=DIRECTION('ref_axis',(1.,0.,0.));
#536=DIRECTION('center_axis',(1.,0.,0.));
#537=DIRECTION('ref_axis',(0.,0.,-1.));
#538=DIRECTION('',(0.,0.,1.));
#539=DIRECTION('center_axis',(0.,1.,0.));
#540=DIRECTION('ref_axis',(0.,0.,1.));
#541=CARTESIAN_POINT('',(0.,0.,0.));
#542=CARTESIAN_POINT('Origin',(-79.0000000000001,46.,-3.));
#543=CARTESIAN_POINT('',(-83.0000000000001,49.,-3.));
#544=CARTESIAN_POINT('',(-83.0000000000001,46.,0.));
#545=CARTESIAN_POINT('Origin',(-83.0000000000001,46.,-3.));
#546=CARTESIAN_POINT('',(-79.0000000000001,46.,0.));
#547=CARTESIAN_POINT('',(-79.0000000000001,46.,0.));
#548=CARTESIAN_POINT('',(-79.0000000000001,49.,-3.));
#549=CARTESIAN_POINT('Origin',(-79.0000000000001,46.,-3.));
#550=CARTESIAN_POINT('',(-79.0000000000001,49.,-3.));
#551=CARTESIAN_POINT('Origin',(-79.0000000000001,49.,-40.));
#552=CARTESIAN_POINT('',(-79.0000000000001,49.,-37.));
#553=CARTESIAN_POINT('',(-79.0000000000001,49.,-40.));
#554=CARTESIAN_POINT('',(-83.0000000000001,49.,-37.));
#555=CARTESIAN_POINT('',(-79.0000000000001,49.,-37.));
#556=CARTESIAN_POINT('',(-83.0000000000001,49.,-40.));
#557=CARTESIAN_POINT('Origin',(-79.,24.5469029056256,-20.));
#558=CARTESIAN_POINT('',(-79.,6.,0.));
#559=CARTESIAN_POINT('',(-79.,-5.81238837749762,0.));
#560=CARTESIAN_POINT('',(-79.,6.,-40.));
#561=CARTESIAN_POINT('',(-79.,6.,-20.));
#562=CARTESIAN_POINT('',(-79.0000000000001,46.,-40.));
#563=CARTESIAN_POINT('',(-79.,-5.81238837749762,-40.));
#564=CARTESIAN_POINT('Origin',(-79.0000000000001,46.,-37.));
#565=CARTESIAN_POINT('',(-79.,27.5,-27.));
#566=CARTESIAN_POINT('Origin',(-79.,27.5,-20.));
#567=CARTESIAN_POINT('Origin',(-79.0000000000001,46.,-37.));
#568=CARTESIAN_POINT('',(-83.0000000000001,46.,-40.));
#569=CARTESIAN_POINT('Origin',(-83.0000000000001,46.,-37.));
#570=CARTESIAN_POINT('',(-79.0000000000001,46.,-40.));
#571=CARTESIAN_POINT('Origin',(-79.,6.,-40.));
#572=CARTESIAN_POINT('',(-83.,6.,-40.));
#573=CARTESIAN_POINT('',(-79.88,6.,-40.));
#574=CARTESIAN_POINT('',(-83.,6.,-40.));
#575=CARTESIAN_POINT('Origin',(-3.00000000000001,0.,-37.));
#576=CARTESIAN_POINT('',(-3.00000000000001,4.,-40.));
#577=CARTESIAN_POINT('',(0.,4.,-37.));
#578=CARTESIAN_POINT('Origin',(-3.00000000000001,4.,-37.));
#579=CARTESIAN_POINT('',(0.,0.,-37.));
#580=CARTESIAN_POINT('',(0.,0.,-37.));
#581=CARTESIAN_POINT('',(-3.00000000000001,0.,-40.));
#582=CARTESIAN_POINT('Origin',(-3.00000000000001,0.,-37.));
#583=CARTESIAN_POINT('',(-3.00000000000001,0.,-40.));
#584=CARTESIAN_POINT('Origin',(-83.,0.,-40.));
#585=CARTESIAN_POINT('',(-77.,-5.55111512312578E-16,-40.));
#586=CARTESIAN_POINT('',(0.,0.,-40.));
#587=CARTESIAN_POINT('',(-77.,4.,-40.));
#588=CARTESIAN_POINT('',(-77.,2.,-40.));
#589=CARTESIAN_POINT('',(0.,4.,-40.));
#590=CARTESIAN_POINT('Origin',(-41.5,0.,-20.));
#591=CARTESIAN_POINT('',(0.,0.,-3.));
#592=CARTESIAN_POINT('',(0.,0.,0.));
#593=CARTESIAN_POINT('',(-3.00000000000001,0.,0.));
#594=CARTESIAN_POINT('Origin',(-3.,0.,-3.));
#595=CARTESIAN_POINT('',(-77.,-5.55111512312578E-16,0.));
#596=CARTESIAN_POINT('',(-83.,0.,0.));
#597=CARTESIAN_POINT('',(-77.,0.,-10.));
#598=CARTESIAN_POINT('',(-27.,0.,-20.));
#599=CARTESIAN_POINT('Origin',(-20.,0.,-20.));
#600=CARTESIAN_POINT('',(-69.,0.,-20.));
#601=CARTESIAN_POINT('Origin',(-62.,0.,-20.));
#602=CARTESIAN_POINT('Origin',(-3.,0.,-3.));
#603=CARTESIAN_POINT('',(0.,4.,-3.));
#604=CARTESIAN_POINT('',(-3.00000000000001,4.,0.));
#605=CARTESIAN_POINT('Origin',(-3.,4.,-3.));
#606=CARTESIAN_POINT('',(-3.,0.,0.));
#607=CARTESIAN_POINT('',(0.,0.,-3.));
#608=CARTESIAN_POINT('Origin',(0.,0.,0.));
#609=CARTESIAN_POINT('',(-77.,4.,0.));
#610=CARTESIAN_POINT('',(-83.,4.,0.));
#611=CARTESIAN_POINT('',(-77.,2.,0.));
#612=CARTESIAN_POINT('Origin',(-79.,27.5,-20.));
#613=CARTESIAN_POINT('',(-83.,27.5,-27.));
#614=CARTESIAN_POINT('',(-79.,27.5,-27.));
#615=CARTESIAN_POINT('Origin',(-83.,27.5,-20.));
#616=CARTESIAN_POINT('Origin',(-77.,6.,-20.));
#617=CARTESIAN_POINT('',(-83.,6.,0.));
#618=CARTESIAN_POINT('',(-83.,6.,-20.));
#619=CARTESIAN_POINT('Origin',(-77.,6.,-40.));
#620=CARTESIAN_POINT('Origin',(-77.,6.,0.));
#621=CARTESIAN_POINT('Origin',(-79.,6.,0.));
#622=CARTESIAN_POINT('',(-83.,-5.81238837749763,0.));
#623=CARTESIAN_POINT('',(-79.88,6.,0.));
#624=CARTESIAN_POINT('Origin',(-79.,6.,-40.));
#625=CARTESIAN_POINT('Origin',(-77.,6.,-40.));
#626=CARTESIAN_POINT('Origin',(-83.,5.99999999999999,0.));
#627=CARTESIAN_POINT('Origin',(-77.,6.,0.));
#628=CARTESIAN_POINT('Origin',(-83.,24.5469029056256,-20.));
#629=CARTESIAN_POINT('Origin',(-77.,6.,-20.));
#630=CARTESIAN_POINT('',(-77.,4.,-10.));
#631=CARTESIAN_POINT('Origin',(-62.,0.,-20.));
#632=CARTESIAN_POINT('',(-69.,4.,-20.));
#633=CARTESIAN_POINT('',(-69.,0.,-20.));
#634=CARTESIAN_POINT('Origin',(-62.,4.,-20.));
#635=CARTESIAN_POINT('Origin',(-20.,0.,-20.));
#636=CARTESIAN_POINT('',(-27.,4.,-20.));
#637=CARTESIAN_POINT('',(-27.,0.,-20.));
#638=CARTESIAN_POINT('Origin',(-20.,4.,-20.));
#639=CARTESIAN_POINT('Origin',(0.,0.,-40.));
#640=CARTESIAN_POINT('',(0.,4.,0.));
#641=CARTESIAN_POINT('Origin',(-41.5,4.,-20.));
#642=UNCERTAINTY_MEASURE_WITH_UNIT(LENGTH_MEASURE(0.01),#646,
'DISTANCE_ACCURACY_VALUE',
'Maximum model space distance between geometric entities at asserted c
onnectivities');
#643=UNCERTAINTY_MEASURE_WITH_UNIT(LENGTH_MEASURE(0.01),#646,
'DISTANCE_ACCURACY_VALUE',
'Maximum model space distance between geometric entities at asserted c
onnectivities');
#644=(
GEOMETRIC_REPRESENTATION_CONTEXT(3)
GLOBAL_UNCERTAINTY_ASSIGNED_CONTEXT((#642))
GLOBAL_UNIT_ASSIGNED_CONTEXT((#646,#648,#649))
REPRESENTATION_CONTEXT('','3D')
);
#645=(
GEOMETRIC_REPRESENTATION_CONTEXT(3)
GLOBAL_UNCERTAINTY_ASSIGNED_CONTEXT((#643))
GLOBAL_UNIT_ASSIGNED_CONTEXT((#646,#648,#649))
REPRESENTATION_CONTEXT('','3D')
);
#646=(
LENGTH_UNIT()
NAMED_UNIT(*)
SI_UNIT(.MILLI.,.METRE.)
);
#647=(
LENGTH_UNIT()
NAMED_UNIT(*)
SI_UNIT(.CENTI.,.METRE.)
);
#648=(
NAMED_UNIT(*)
PLANE_ANGLE_UNIT()
SI_UNIT($,.RADIAN.)
);
#649=(
NAMED_UNIT(*)
SI_UNIT($,.STERADIAN.)
SOLID_ANGLE_UNIT()
);
#650=SHAPE_DEFINITION_REPRESENTATION(#651,#652);
#651=PRODUCT_DEFINITION_SHAPE('',$,#654);
#652=SHAPE_REPRESENTATION('',(#390),#644);
#653=PRODUCT_DEFINITION_CONTEXT('part definition',#658,'design');
#654=PRODUCT_DEFINITION(
'\X2\04230433043E043B043E043A\X0\ \X2\04430434043B0438043D0435043D043D044B0439\X0\ 
(3 \X2\043E0442043204350440044104420438044F\X0\), USG3','308190 USG3',#655,
#653);
#655=PRODUCT_DEFINITION_FORMATION('',$,#660);
#656=PRODUCT_RELATED_PRODUCT_CATEGORY('308190 USG3','308190 USG3',(#660));
#657=APPLICATION_PROTOCOL_DEFINITION('international standard',
'automotive_design',2009,#658);
#658=APPLICATION_CONTEXT(
'Core Data for Automotive Mechanical Design Process');
#659=PRODUCT_CONTEXT('part definition',#658,'mechanical');
#660=PRODUCT(
'\X2\04230433043E043B043E043A\X0\ \X2\04430434043B0438043D0435043D043D044B0439\X0\ 
(3 \X2\043E0442043204350440044104420438044F\X0\), USG3','308190 USG3',$,
(#659));
#661=PRESENTATION_STYLE_ASSIGNMENT((#662));
#662=SURFACE_STYLE_USAGE(.BOTH.,#665);
#663=SURFACE_STYLE_RENDERING_WITH_PROPERTIES($,#669,(#664));
#664=SURFACE_STYLE_TRANSPARENT(0.);
#665=SURFACE_SIDE_STYLE('',(#666,#663));
#666=SURFACE_STYLE_FILL_AREA(#667);
#667=FILL_AREA_STYLE('',(#668));
#668=FILL_AREA_STYLE_COLOUR('',#669);
#669=COLOUR_RGB('',0.745098039215686,0.737254901960784,0.729411764705882);
ENDSEC;
END-ISO-10303-21;
