ISO-10303-21;
HEADER;
/* Generated by software containing ST-Developer
 * from STEP Tools, Inc. (www.steptools.com) 
 */

FILE_DESCRIPTION(
/* description */ (
'\X2\04230433043E043B043A0438\X0\ \X2\044104420430043B044C043D044B0435\X0\ 
\X2\0433043E0440044F04470435043A043004420430043D044B0435\X0\ \X2\044004300432043D043E0431043E043A04380435\X0\'),

/* implementation_level */ '2;1');

FILE_NAME(
/* name */ '',
/* time_stamp */ '2023-05-18T14:42:58+03:00',
/* author */ ('\X2\042004420438044904350432\X0\ \X2\0410\X0\.\X2\041E\X0\.'),

/* organization */ (''),
/* preprocessor_version */ 'ST-DEVELOPER v19.2',
/* originating_system */ 'Autodesk Inventor 2023',
/* authorisation */ '');

FILE_SCHEMA (('AUTOMOTIVE_DESIGN { 1 0 10303 214 3 1 1 }'));
ENDSEC;

DATA;
#10=MECHANICAL_DESIGN_GEOMETRIC_PRESENTATION_REPRESENTATION('',(#13),#363);
#11=SHAPE_REPRESENTATION_RELATIONSHIP('SRR','None',#370,#12);
#12=ADVANCED_BREP_SHAPE_REPRESENTATION('',(#14),#362);
#13=STYLED_ITEM('',(#379),#14);
#14=MANIFOLD_SOLID_BREP('Solid1',#206);
#15=PLANE('',#232);
#16=PLANE('',#233);
#17=PLANE('',#234);
#18=PLANE('',#235);
#19=PLANE('',#239);
#20=PLANE('',#243);
#21=PLANE('',#244);
#22=PLANE('',#245);
#23=FACE_OUTER_BOUND('',#34,.T.);
#24=FACE_OUTER_BOUND('',#35,.T.);
#25=FACE_OUTER_BOUND('',#36,.T.);
#26=FACE_OUTER_BOUND('',#37,.T.);
#27=FACE_OUTER_BOUND('',#38,.T.);
#28=FACE_OUTER_BOUND('',#39,.T.);
#29=FACE_OUTER_BOUND('',#40,.T.);
#30=FACE_OUTER_BOUND('',#41,.T.);
#31=FACE_OUTER_BOUND('',#42,.T.);
#32=FACE_OUTER_BOUND('',#43,.T.);
#33=FACE_OUTER_BOUND('',#44,.T.);
#34=EDGE_LOOP('',(#138,#139,#140,#141));
#35=EDGE_LOOP('',(#142,#143,#144,#145));
#36=EDGE_LOOP('',(#146,#147,#148,#149));
#37=EDGE_LOOP('',(#150,#151,#152,#153));
#38=EDGE_LOOP('',(#154,#155,#156,#157));
#39=EDGE_LOOP('',(#158,#159,#160,#161));
#40=EDGE_LOOP('',(#162,#163,#164,#165));
#41=EDGE_LOOP('',(#166,#167,#168,#169));
#42=EDGE_LOOP('',(#170,#171,#172,#173));
#43=EDGE_LOOP('',(#174,#175,#176,#177,#178,#179,#180,#181,#182));
#44=EDGE_LOOP('',(#183,#184,#185,#186,#187,#188,#189,#190,#191));
#45=LINE('',#309,#66);
#46=LINE('',#312,#67);
#47=LINE('',#315,#68);
#48=LINE('',#317,#69);
#49=LINE('',#318,#70);
#50=LINE('',#321,#71);
#51=LINE('',#323,#72);
#52=LINE('',#324,#73);
#53=LINE('',#327,#74);
#54=LINE('',#329,#75);
#55=LINE('',#330,#76);
#56=LINE('',#333,#77);
#57=LINE('',#335,#78);
#58=LINE('',#336,#79);
#59=LINE('',#341,#80);
#60=LINE('',#345,#81);
#61=LINE('',#347,#82);
#62=LINE('',#348,#83);
#63=LINE('',#353,#84);
#64=LINE('',#356,#85);
#65=LINE('',#357,#86);
#66=VECTOR('',#252,10.);
#67=VECTOR('',#255,10.);
#68=VECTOR('',#258,10.);
#69=VECTOR('',#259,10.);
#70=VECTOR('',#260,10.);
#71=VECTOR('',#263,10.);
#72=VECTOR('',#264,10.);
#73=VECTOR('',#265,10.);
#74=VECTOR('',#268,10.);
#75=VECTOR('',#269,10.);
#76=VECTOR('',#270,10.);
#77=VECTOR('',#273,10.);
#78=VECTOR('',#274,10.);
#79=VECTOR('',#275,10.);
#80=VECTOR('',#280,10.);
#81=VECTOR('',#285,10.);
#82=VECTOR('',#286,10.);
#83=VECTOR('',#287,10.);
#84=VECTOR('',#292,10.);
#85=VECTOR('',#297,10.);
#86=VECTOR('',#298,10.);
#87=CIRCLE('',#230,1.8);
#88=CIRCLE('',#231,1.8);
#89=CIRCLE('',#237,1.8);
#90=CIRCLE('',#238,1.8);
#91=CIRCLE('',#241,5.5);
#92=CIRCLE('',#242,5.5);
#93=VERTEX_POINT('',#305);
#94=VERTEX_POINT('',#306);
#95=VERTEX_POINT('',#308);
#96=VERTEX_POINT('',#310);
#97=VERTEX_POINT('',#314);
#98=VERTEX_POINT('',#316);
#99=VERTEX_POINT('',#320);
#100=VERTEX_POINT('',#322);
#101=VERTEX_POINT('',#326);
#102=VERTEX_POINT('',#328);
#103=VERTEX_POINT('',#332);
#104=VERTEX_POINT('',#334);
#105=VERTEX_POINT('',#338);
#106=VERTEX_POINT('',#340);
#107=VERTEX_POINT('',#344);
#108=VERTEX_POINT('',#346);
#109=VERTEX_POINT('',#350);
#110=VERTEX_POINT('',#352);
#111=EDGE_CURVE('',#93,#94,#87,.T.);
#112=EDGE_CURVE('',#95,#94,#45,.T.);
#113=EDGE_CURVE('',#96,#95,#88,.T.);
#114=EDGE_CURVE('',#96,#93,#46,.T.);
#115=EDGE_CURVE('',#94,#97,#47,.T.);
#116=EDGE_CURVE('',#98,#97,#48,.T.);
#117=EDGE_CURVE('',#95,#98,#49,.T.);
#118=EDGE_CURVE('',#97,#99,#50,.T.);
#119=EDGE_CURVE('',#100,#99,#51,.T.);
#120=EDGE_CURVE('',#98,#100,#52,.T.);
#121=EDGE_CURVE('',#99,#101,#53,.T.);
#122=EDGE_CURVE('',#102,#101,#54,.T.);
#123=EDGE_CURVE('',#100,#102,#55,.T.);
#124=EDGE_CURVE('',#101,#103,#56,.T.);
#125=EDGE_CURVE('',#104,#103,#57,.T.);
#126=EDGE_CURVE('',#102,#104,#58,.T.);
#127=EDGE_CURVE('',#103,#105,#89,.T.);
#128=EDGE_CURVE('',#106,#105,#59,.T.);
#129=EDGE_CURVE('',#104,#106,#90,.T.);
#130=EDGE_CURVE('',#105,#107,#60,.T.);
#131=EDGE_CURVE('',#108,#107,#61,.T.);
#132=EDGE_CURVE('',#106,#108,#62,.T.);
#133=EDGE_CURVE('',#107,#109,#91,.T.);
#134=EDGE_CURVE('',#110,#109,#63,.T.);
#135=EDGE_CURVE('',#108,#110,#92,.T.);
#136=EDGE_CURVE('',#109,#93,#64,.T.);
#137=EDGE_CURVE('',#110,#96,#65,.T.);
#138=ORIENTED_EDGE('',*,*,#111,.T.);
#139=ORIENTED_EDGE('',*,*,#112,.F.);
#140=ORIENTED_EDGE('',*,*,#113,.F.);
#141=ORIENTED_EDGE('',*,*,#114,.T.);
#142=ORIENTED_EDGE('',*,*,#115,.T.);
#143=ORIENTED_EDGE('',*,*,#116,.F.);
#144=ORIENTED_EDGE('',*,*,#117,.F.);
#145=ORIENTED_EDGE('',*,*,#112,.T.);
#146=ORIENTED_EDGE('',*,*,#118,.T.);
#147=ORIENTED_EDGE('',*,*,#119,.F.);
#148=ORIENTED_EDGE('',*,*,#120,.F.);
#149=ORIENTED_EDGE('',*,*,#116,.T.);
#150=ORIENTED_EDGE('',*,*,#121,.T.);
#151=ORIENTED_EDGE('',*,*,#122,.F.);
#152=ORIENTED_EDGE('',*,*,#123,.F.);
#153=ORIENTED_EDGE('',*,*,#119,.T.);
#154=ORIENTED_EDGE('',*,*,#124,.T.);
#155=ORIENTED_EDGE('',*,*,#125,.F.);
#156=ORIENTED_EDGE('',*,*,#126,.F.);
#157=ORIENTED_EDGE('',*,*,#122,.T.);
#158=ORIENTED_EDGE('',*,*,#127,.T.);
#159=ORIENTED_EDGE('',*,*,#128,.F.);
#160=ORIENTED_EDGE('',*,*,#129,.F.);
#161=ORIENTED_EDGE('',*,*,#125,.T.);
#162=ORIENTED_EDGE('',*,*,#130,.T.);
#163=ORIENTED_EDGE('',*,*,#131,.F.);
#164=ORIENTED_EDGE('',*,*,#132,.F.);
#165=ORIENTED_EDGE('',*,*,#128,.T.);
#166=ORIENTED_EDGE('',*,*,#133,.T.);
#167=ORIENTED_EDGE('',*,*,#134,.F.);
#168=ORIENTED_EDGE('',*,*,#135,.F.);
#169=ORIENTED_EDGE('',*,*,#131,.T.);
#170=ORIENTED_EDGE('',*,*,#136,.T.);
#171=ORIENTED_EDGE('',*,*,#114,.F.);
#172=ORIENTED_EDGE('',*,*,#137,.F.);
#173=ORIENTED_EDGE('',*,*,#134,.T.);
#174=ORIENTED_EDGE('',*,*,#126,.T.);
#175=ORIENTED_EDGE('',*,*,#129,.T.);
#176=ORIENTED_EDGE('',*,*,#132,.T.);
#177=ORIENTED_EDGE('',*,*,#135,.T.);
#178=ORIENTED_EDGE('',*,*,#137,.T.);
#179=ORIENTED_EDGE('',*,*,#113,.T.);
#180=ORIENTED_EDGE('',*,*,#117,.T.);
#181=ORIENTED_EDGE('',*,*,#120,.T.);
#182=ORIENTED_EDGE('',*,*,#123,.T.);
#183=ORIENTED_EDGE('',*,*,#124,.F.);
#184=ORIENTED_EDGE('',*,*,#121,.F.);
#185=ORIENTED_EDGE('',*,*,#118,.F.);
#186=ORIENTED_EDGE('',*,*,#115,.F.);
#187=ORIENTED_EDGE('',*,*,#111,.F.);
#188=ORIENTED_EDGE('',*,*,#136,.F.);
#189=ORIENTED_EDGE('',*,*,#133,.F.);
#190=ORIENTED_EDGE('',*,*,#130,.F.);
#191=ORIENTED_EDGE('',*,*,#127,.F.);
#192=CYLINDRICAL_SURFACE('',#229,1.8);
#193=CYLINDRICAL_SURFACE('',#236,1.8);
#194=CYLINDRICAL_SURFACE('',#240,5.5);
#195=ADVANCED_FACE('',(#23),#192,.T.);
#196=ADVANCED_FACE('',(#24),#15,.T.);
#197=ADVANCED_FACE('',(#25),#16,.T.);
#198=ADVANCED_FACE('',(#26),#17,.T.);
#199=ADVANCED_FACE('',(#27),#18,.T.);
#200=ADVANCED_FACE('',(#28),#193,.T.);
#201=ADVANCED_FACE('',(#29),#19,.T.);
#202=ADVANCED_FACE('',(#30),#194,.F.);
#203=ADVANCED_FACE('',(#31),#20,.T.);
#204=ADVANCED_FACE('',(#32),#21,.F.);
#205=ADVANCED_FACE('',(#33),#22,.T.);
#206=CLOSED_SHELL('',(#195,#196,#197,#198,#199,#200,#201,#202,#203,#204,
#205));
#207=DERIVED_UNIT_ELEMENT(#210,1.);
#208=DERIVED_UNIT_ELEMENT(#365,-3.);
#209=DIMENSIONAL_EXPONENTS(0.,1.,0.,0.,0.,0.,0.);
#210=(
CONVERSION_BASED_UNIT('gram',#212)
MASS_UNIT()
NAMED_UNIT(#209)
);
#211=(
MASS_UNIT()
NAMED_UNIT(*)
SI_UNIT(.KILO.,.GRAM.)
);
#212=MASS_MEASURE_WITH_UNIT(MASS_MEASURE(0.001),#211);
#213=DERIVED_UNIT((#207,#208));
#214=MEASURE_REPRESENTATION_ITEM('density measure',
POSITIVE_RATIO_MEASURE(7.85),#213);
#215=PROPERTY_DEFINITION_REPRESENTATION(#220,#217);
#216=PROPERTY_DEFINITION_REPRESENTATION(#221,#218);
#217=REPRESENTATION('material name',(#219),#362);
#218=REPRESENTATION('density',(#214),#362);
#219=DESCRIPTIVE_REPRESENTATION_ITEM('\X2\042104420430043B044C\X0\, \X2\043C044F0433043A0430044F\X0\',
'\X2\042104420430043B044C\X0\, \X2\043C044F0433043A0430044F\X0\');
#220=PROPERTY_DEFINITION('material property','material name',#372);
#221=PROPERTY_DEFINITION('material property','density of part',#372);
#222=DATE_TIME_ROLE('creation_date');
#223=APPLIED_DATE_AND_TIME_ASSIGNMENT(#224,#222,(#372));
#224=DATE_AND_TIME(#225,#226);
#225=CALENDAR_DATE(2020,21,1);
#226=LOCAL_TIME(0,0,0.,#227);
#227=COORDINATED_UNIVERSAL_TIME_OFFSET(0,0,.BEHIND.);
#228=AXIS2_PLACEMENT_3D('',#303,#246,#247);
#229=AXIS2_PLACEMENT_3D('',#304,#248,#249);
#230=AXIS2_PLACEMENT_3D('',#307,#250,#251);
#231=AXIS2_PLACEMENT_3D('',#311,#253,#254);
#232=AXIS2_PLACEMENT_3D('',#313,#256,#257);
#233=AXIS2_PLACEMENT_3D('',#319,#261,#262);
#234=AXIS2_PLACEMENT_3D('',#325,#266,#267);
#235=AXIS2_PLACEMENT_3D('',#331,#271,#272);
#236=AXIS2_PLACEMENT_3D('',#337,#276,#277);
#237=AXIS2_PLACEMENT_3D('',#339,#278,#279);
#238=AXIS2_PLACEMENT_3D('',#342,#281,#282);
#239=AXIS2_PLACEMENT_3D('',#343,#283,#284);
#240=AXIS2_PLACEMENT_3D('',#349,#288,#289);
#241=AXIS2_PLACEMENT_3D('',#351,#290,#291);
#242=AXIS2_PLACEMENT_3D('',#354,#293,#294);
#243=AXIS2_PLACEMENT_3D('',#355,#295,#296);
#244=AXIS2_PLACEMENT_3D('',#358,#299,#300);
#245=AXIS2_PLACEMENT_3D('',#359,#301,#302);
#246=DIRECTION('axis',(0.,0.,1.));
#247=DIRECTION('refdir',(1.,0.,0.));
#248=DIRECTION('center_axis',(0.,0.,1.));
#249=DIRECTION('ref_axis',(1.,0.,0.));
#250=DIRECTION('center_axis',(0.,0.,-1.));
#251=DIRECTION('ref_axis',(1.,0.,0.));
#252=DIRECTION('',(0.,0.,1.));
#253=DIRECTION('center_axis',(0.,0.,-1.));
#254=DIRECTION('ref_axis',(1.,0.,0.));
#255=DIRECTION('',(0.,0.,1.));
#256=DIRECTION('center_axis',(1.,0.,0.));
#257=DIRECTION('ref_axis',(0.,0.,-1.));
#258=DIRECTION('',(0.,-1.,0.));
#259=DIRECTION('',(0.,0.,1.));
#260=DIRECTION('',(0.,-1.,0.));
#261=DIRECTION('center_axis',(0.,-1.,0.));
#262=DIRECTION('ref_axis',(0.,0.,-1.));
#263=DIRECTION('',(-1.,0.,0.));
#264=DIRECTION('',(0.,0.,1.));
#265=DIRECTION('',(-1.,0.,0.));
#266=DIRECTION('center_axis',(-1.,0.,0.));
#267=DIRECTION('ref_axis',(0.,0.,1.));
#268=DIRECTION('',(0.,1.,0.));
#269=DIRECTION('',(0.,0.,1.));
#270=DIRECTION('',(0.,1.,0.));
#271=DIRECTION('center_axis',(0.,1.,0.));
#272=DIRECTION('ref_axis',(0.,0.,1.));
#273=DIRECTION('',(1.,0.,0.));
#274=DIRECTION('',(0.,0.,1.));
#275=DIRECTION('',(1.,0.,0.));
#276=DIRECTION('center_axis',(0.,0.,1.));
#277=DIRECTION('ref_axis',(1.,2.4671622769448E-15,0.));
#278=DIRECTION('center_axis',(0.,0.,-1.));
#279=DIRECTION('ref_axis',(1.,2.4671622769448E-15,0.));
#280=DIRECTION('',(0.,0.,1.));
#281=DIRECTION('center_axis',(0.,0.,-1.));
#282=DIRECTION('ref_axis',(1.,2.4671622769448E-15,0.));
#283=DIRECTION('center_axis',(1.,0.,0.));
#284=DIRECTION('ref_axis',(0.,0.,-1.));
#285=DIRECTION('',(0.,-1.,0.));
#286=DIRECTION('',(0.,0.,1.));
#287=DIRECTION('',(0.,-1.,0.));
#288=DIRECTION('center_axis',(0.,0.,1.));
#289=DIRECTION('ref_axis',(1.,0.,0.));
#290=DIRECTION('center_axis',(0.,0.,1.));
#291=DIRECTION('ref_axis',(1.,0.,0.));
#292=DIRECTION('',(0.,0.,1.));
#293=DIRECTION('center_axis',(0.,0.,1.));
#294=DIRECTION('ref_axis',(1.,0.,0.));
#295=DIRECTION('center_axis',(0.,1.,0.));
#296=DIRECTION('ref_axis',(0.,0.,1.));
#297=DIRECTION('',(1.,0.,0.));
#298=DIRECTION('',(1.,0.,0.));
#299=DIRECTION('center_axis',(0.,0.,1.));
#300=DIRECTION('ref_axis',(1.,0.,0.));
#301=DIRECTION('center_axis',(0.,0.,1.));
#302=DIRECTION('ref_axis',(1.,0.,0.));
#303=CARTESIAN_POINT('',(0.,0.,0.));
#304=CARTESIAN_POINT('Origin',(34.,-11.,0.));
#305=CARTESIAN_POINT('',(34.,-9.2,3000.));
#306=CARTESIAN_POINT('',(35.8,-11.,3000.));
#307=CARTESIAN_POINT('Origin',(34.,-11.,3000.));
#308=CARTESIAN_POINT('',(35.8,-11.,0.));
#309=CARTESIAN_POINT('',(35.8,-11.,0.));
#310=CARTESIAN_POINT('',(34.,-9.2,0.));
#311=CARTESIAN_POINT('Origin',(34.,-11.,0.));
#312=CARTESIAN_POINT('',(34.,-9.2,0.));
#313=CARTESIAN_POINT('Origin',(35.8,-11.,0.));
#314=CARTESIAN_POINT('',(35.8,-14.2,3000.));
#315=CARTESIAN_POINT('',(35.8,-0.0999999999999979,3000.));
#316=CARTESIAN_POINT('',(35.8,-14.2,0.));
#317=CARTESIAN_POINT('',(35.8,-14.2,0.));
#318=CARTESIAN_POINT('',(35.8,-0.0999999999999979,0.));
#319=CARTESIAN_POINT('Origin',(35.8,-14.2,0.));
#320=CARTESIAN_POINT('',(-14.2,-14.2,3000.));
#321=CARTESIAN_POINT('',(23.3,-14.2,3000.));
#322=CARTESIAN_POINT('',(-14.2,-14.2,0.));
#323=CARTESIAN_POINT('',(-14.2,-14.2,0.));
#324=CARTESIAN_POINT('',(23.3,-14.2,0.));
#325=CARTESIAN_POINT('Origin',(-14.2,-14.2,0.));
#326=CARTESIAN_POINT('',(-14.2,35.8,3000.));
#327=CARTESIAN_POINT('',(-14.2,-1.7,3000.));
#328=CARTESIAN_POINT('',(-14.2,35.8,0.));
#329=CARTESIAN_POINT('',(-14.2,35.8,0.));
#330=CARTESIAN_POINT('',(-14.2,-1.7,0.));
#331=CARTESIAN_POINT('Origin',(-14.2,35.8,0.));
#332=CARTESIAN_POINT('',(-11.,35.8,3000.));
#333=CARTESIAN_POINT('',(-1.7,35.8,3000.));
#334=CARTESIAN_POINT('',(-11.,35.8,0.));
#335=CARTESIAN_POINT('',(-11.,35.8,0.));
#336=CARTESIAN_POINT('',(-1.7,35.8,0.));
#337=CARTESIAN_POINT('Origin',(-11.,34.,0.));
#338=CARTESIAN_POINT('',(-9.2,34.,3000.));
#339=CARTESIAN_POINT('Origin',(-11.,34.,3000.));
#340=CARTESIAN_POINT('',(-9.2,34.,0.));
#341=CARTESIAN_POINT('',(-9.2,34.,0.));
#342=CARTESIAN_POINT('Origin',(-11.,34.,0.));
#343=CARTESIAN_POINT('Origin',(-9.2,34.,0.));
#344=CARTESIAN_POINT('',(-9.2,-3.7,3000.));
#345=CARTESIAN_POINT('',(-9.2,22.4,3000.));
#346=CARTESIAN_POINT('',(-9.2,-3.7,0.));
#347=CARTESIAN_POINT('',(-9.2,-3.7,0.));
#348=CARTESIAN_POINT('',(-9.2,22.4,0.));
#349=CARTESIAN_POINT('Origin',(-3.7,-3.7,0.));
#350=CARTESIAN_POINT('',(-3.7,-9.2,3000.));
#351=CARTESIAN_POINT('Origin',(-3.7,-3.7,3000.));
#352=CARTESIAN_POINT('',(-3.7,-9.2,0.));
#353=CARTESIAN_POINT('',(-3.7,-9.2,0.));
#354=CARTESIAN_POINT('Origin',(-3.7,-3.7,0.));
#355=CARTESIAN_POINT('Origin',(-3.7,-9.2,0.));
#356=CARTESIAN_POINT('',(3.55,-9.2,3000.));
#357=CARTESIAN_POINT('',(3.55,-9.2,0.));
#358=CARTESIAN_POINT('Origin',(10.8,10.8,0.));
#359=CARTESIAN_POINT('Origin',(10.8,10.8,3000.));
#360=UNCERTAINTY_MEASURE_WITH_UNIT(LENGTH_MEASURE(0.01),#364,
'DISTANCE_ACCURACY_VALUE',
'Maximum model space distance between geometric entities at asserted c
onnectivities');
#361=UNCERTAINTY_MEASURE_WITH_UNIT(LENGTH_MEASURE(0.01),#364,
'DISTANCE_ACCURACY_VALUE',
'Maximum model space distance between geometric entities at asserted c
onnectivities');
#362=(
GEOMETRIC_REPRESENTATION_CONTEXT(3)
GLOBAL_UNCERTAINTY_ASSIGNED_CONTEXT((#360))
GLOBAL_UNIT_ASSIGNED_CONTEXT((#364,#366,#367))
REPRESENTATION_CONTEXT('','3D')
);
#363=(
GEOMETRIC_REPRESENTATION_CONTEXT(3)
GLOBAL_UNCERTAINTY_ASSIGNED_CONTEXT((#361))
GLOBAL_UNIT_ASSIGNED_CONTEXT((#364,#366,#367))
REPRESENTATION_CONTEXT('','3D')
);
#364=(
LENGTH_UNIT()
NAMED_UNIT(*)
SI_UNIT(.MILLI.,.METRE.)
);
#365=(
LENGTH_UNIT()
NAMED_UNIT(*)
SI_UNIT(.CENTI.,.METRE.)
);
#366=(
NAMED_UNIT(*)
PLANE_ANGLE_UNIT()
SI_UNIT($,.RADIAN.)
);
#367=(
NAMED_UNIT(*)
SI_UNIT($,.STERADIAN.)
SOLID_ANGLE_UNIT()
);
#368=SHAPE_DEFINITION_REPRESENTATION(#369,#370);
#369=PRODUCT_DEFINITION_SHAPE('',$,#372);
#370=SHAPE_REPRESENTATION('',(#228),#362);
#371=PRODUCT_DEFINITION_CONTEXT('part definition',#376,'design');
#372=PRODUCT_DEFINITION('\X2\04230433043E043B043E043A\X0\ 50\X2\0445\X0\5
0\X2\0445\X0\3000 \X2\0413041E04210422\X0\ 8509-93-01',
'500030 \X2\04230433043E043B043E043A\X0\ 50\X2\0445\X0\50\X2\0445\X0\3
000 \X2\0413041E04210422\X0\ 8509-93',#373,#371);
#373=PRODUCT_DEFINITION_FORMATION('',$,#378);
#374=PRODUCT_RELATED_PRODUCT_CATEGORY(
'500030 \X2\04230433043E043B043E043A\X0\ 50\X2\0445\X0\50\X2\0445\X0\3
000 \X2\0413041E04210422\X0\ 8509-93',
'500030 \X2\04230433043E043B043E043A\X0\ 50\X2\0445\X0\50\X2\0445\X0\3
000 \X2\0413041E04210422\X0\ 8509-93',(#378));
#375=APPLICATION_PROTOCOL_DEFINITION('international standard',
'automotive_design',2009,#376);
#376=APPLICATION_CONTEXT(
'Core Data for Automotive Mechanical Design Process');
#377=PRODUCT_CONTEXT('part definition',#376,'mechanical');
#378=PRODUCT('\X2\04230433043E043B043E043A\X0\ 50\X2\0445\X0\50\X2\0445\X0\3
000 \X2\0413041E04210422\X0\ 8509-93-01',
'500030 \X2\04230433043E043B043E043A\X0\ 50\X2\0445\X0\50\X2\0445\X0\3
000 \X2\0413041E04210422\X0\ 8509-93',
'\X2\04230433043E043B043A0438\X0\ \X2\044104420430043B044C043D044B0435\X0\ 
\X2\0433043E0440044F04470435043A043004420430043D044B0435\X0\ \X2\044004300432043D043E0431043E043A04380435\X0\',
(#377));
#379=PRESENTATION_STYLE_ASSIGNMENT((#380));
#380=SURFACE_STYLE_USAGE(.BOTH.,#383);
#381=SURFACE_STYLE_RENDERING_WITH_PROPERTIES($,#387,(#382));
#382=SURFACE_STYLE_TRANSPARENT(0.);
#383=SURFACE_SIDE_STYLE('',(#384,#381));
#384=SURFACE_STYLE_FILL_AREA(#385);
#385=FILL_AREA_STYLE('',(#386));
#386=FILL_AREA_STYLE_COLOUR('',#387);
#387=COLOUR_RGB('',0.745098039215686,0.737254901960784,0.729411764705882);
ENDSEC;
END-ISO-10303-21;
