ISO-10303-21;
HEADER;
/* Generated by software containing ST-Developer
 * from STEP Tools, Inc. (www.steptools.com) 
 */

FILE_DESCRIPTION(
/* description */ (''),
/* implementation_level */ '2;1');

FILE_NAME(
/* name */ '505010.20.1500 ZK 20-1500.ipt.stp',
/* time_stamp */ '2023-05-19T14:07:07+03:00',
/* author */ ('Man49'),
/* organization */ (''),
/* preprocessor_version */ 'ST-DEVELOPER v19.2',
/* originating_system */ 'Autodesk Inventor 2023',
/* authorisation */ '');

FILE_SCHEMA (('AUTOMOTIVE_DESIGN { 1 0 10303 214 3 1 1 }'));
ENDSEC;

DATA;
#10=MECHANICAL_DESIGN_GEOMETRIC_PRESENTATION_REPRESENTATION('',(#99,#100,
#101,#102,#103,#104,#105,#106),#215);
#11=SHAPE_REPRESENTATION_RELATIONSHIP('SRR','None',#222,#12);
#12=ADVANCED_BREP_SHAPE_REPRESENTATION('',(#13),#214);
#13=MANIFOLD_SOLID_BREP('\X2\04220432043504400434043E0435\X0\ \X2\04420435043B043E\X0\1',
#114);
#14=FACE_BOUND('',#29,.T.);
#15=PLANE('',#145);
#16=CYLINDRICAL_SURFACE('',#143,10.);
#17=FACE_OUTER_BOUND('',#24,.T.);
#18=FACE_OUTER_BOUND('',#25,.T.);
#19=FACE_OUTER_BOUND('',#26,.T.);
#20=FACE_OUTER_BOUND('',#27,.T.);
#21=FACE_OUTER_BOUND('',#28,.T.);
#22=FACE_OUTER_BOUND('',#30,.T.);
#23=FACE_OUTER_BOUND('',#31,.T.);
#24=EDGE_LOOP('',(#70,#71,#72));
#25=EDGE_LOOP('',(#73,#74,#75,#76));
#26=EDGE_LOOP('',(#77,#78,#79,#80));
#27=EDGE_LOOP('',(#81,#82,#83,#84));
#28=EDGE_LOOP('',(#85));
#29=EDGE_LOOP('',(#86));
#30=EDGE_LOOP('',(#87,#88,#89,#90));
#31=EDGE_LOOP('',(#91,#92,#93));
#32=LINE('',#189,#38);
#33=LINE('',#193,#39);
#34=LINE('',#197,#40);
#35=LINE('',#201,#41);
#36=LINE('',#207,#42);
#37=LINE('',#211,#43);
#38=VECTOR('',#156,2.5);
#39=VECTOR('',#161,6.);
#40=VECTOR('',#166,8.5);
#41=VECTOR('',#171,10.);
#42=VECTOR('',#178,6.);
#43=VECTOR('',#183,2.5);
#44=CIRCLE('',#138,5.);
#45=CIRCLE('',#140,7.);
#46=CIRCLE('',#142,10.);
#47=CIRCLE('',#144,10.);
#48=CIRCLE('',#146,7.);
#49=CIRCLE('',#148,5.);
#50=VERTEX_POINT('',#186);
#51=VERTEX_POINT('',#188);
#52=VERTEX_POINT('',#191);
#53=VERTEX_POINT('',#195);
#54=VERTEX_POINT('',#199);
#55=VERTEX_POINT('',#203);
#56=VERTEX_POINT('',#206);
#57=VERTEX_POINT('',#210);
#58=EDGE_CURVE('',#50,#50,#44,.T.);
#59=EDGE_CURVE('',#50,#51,#32,.T.);
#60=EDGE_CURVE('',#52,#52,#45,.T.);
#61=EDGE_CURVE('',#52,#50,#33,.T.);
#62=EDGE_CURVE('',#53,#53,#46,.T.);
#63=EDGE_CURVE('',#53,#52,#34,.T.);
#64=EDGE_CURVE('',#54,#54,#47,.T.);
#65=EDGE_CURVE('',#54,#53,#35,.T.);
#66=EDGE_CURVE('',#55,#55,#48,.T.);
#67=EDGE_CURVE('',#55,#56,#36,.T.);
#68=EDGE_CURVE('',#56,#56,#49,.T.);
#69=EDGE_CURVE('',#56,#57,#37,.T.);
#70=ORIENTED_EDGE('',*,*,#58,.F.);
#71=ORIENTED_EDGE('',*,*,#59,.T.);
#72=ORIENTED_EDGE('',*,*,#59,.F.);
#73=ORIENTED_EDGE('',*,*,#60,.F.);
#74=ORIENTED_EDGE('',*,*,#61,.T.);
#75=ORIENTED_EDGE('',*,*,#58,.T.);
#76=ORIENTED_EDGE('',*,*,#61,.F.);
#77=ORIENTED_EDGE('',*,*,#62,.F.);
#78=ORIENTED_EDGE('',*,*,#63,.T.);
#79=ORIENTED_EDGE('',*,*,#60,.T.);
#80=ORIENTED_EDGE('',*,*,#63,.F.);
#81=ORIENTED_EDGE('',*,*,#64,.F.);
#82=ORIENTED_EDGE('',*,*,#65,.T.);
#83=ORIENTED_EDGE('',*,*,#62,.T.);
#84=ORIENTED_EDGE('',*,*,#65,.F.);
#85=ORIENTED_EDGE('',*,*,#64,.T.);
#86=ORIENTED_EDGE('',*,*,#66,.F.);
#87=ORIENTED_EDGE('',*,*,#66,.T.);
#88=ORIENTED_EDGE('',*,*,#67,.T.);
#89=ORIENTED_EDGE('',*,*,#68,.F.);
#90=ORIENTED_EDGE('',*,*,#67,.F.);
#91=ORIENTED_EDGE('',*,*,#68,.T.);
#92=ORIENTED_EDGE('',*,*,#69,.T.);
#93=ORIENTED_EDGE('',*,*,#69,.F.);
#94=CONICAL_SURFACE('',#137,2.5,1.03037682652431);
#95=CONICAL_SURFACE('',#139,6.,0.0665681637758238);
#96=CONICAL_SURFACE('',#141,8.5,0.876058050598193);
#97=CONICAL_SURFACE('',#147,6.,0.0665681637758238);
#98=CONICAL_SURFACE('',#149,2.5,1.0303768265243);
#99=STYLED_ITEM('',(#231),#107);
#100=STYLED_ITEM('',(#231),#108);
#101=STYLED_ITEM('',(#231),#109);
#102=STYLED_ITEM('',(#231),#110);
#103=STYLED_ITEM('',(#231),#111);
#104=STYLED_ITEM('',(#231),#112);
#105=STYLED_ITEM('',(#231),#113);
#106=STYLED_ITEM('',(#231),#13);
#107=ADVANCED_FACE('',(#17),#94,.T.);
#108=ADVANCED_FACE('',(#18),#95,.T.);
#109=ADVANCED_FACE('',(#19),#96,.T.);
#110=ADVANCED_FACE('',(#20),#16,.T.);
#111=ADVANCED_FACE('',(#21,#14),#15,.T.);
#112=ADVANCED_FACE('',(#22),#97,.F.);
#113=ADVANCED_FACE('',(#23),#98,.F.);
#114=CLOSED_SHELL('',(#107,#108,#109,#110,#111,#112,#113));
#115=DERIVED_UNIT_ELEMENT(#118,1.);
#116=DERIVED_UNIT_ELEMENT(#217,-3.);
#117=DIMENSIONAL_EXPONENTS(0.,1.,0.,0.,0.,0.,0.);
#118=(
CONVERSION_BASED_UNIT('gram',#120)
MASS_UNIT()
NAMED_UNIT(#117)
);
#119=(
MASS_UNIT()
NAMED_UNIT(*)
SI_UNIT(.KILO.,.GRAM.)
);
#120=MASS_MEASURE_WITH_UNIT(MASS_MEASURE(0.001),#119);
#121=DERIVED_UNIT((#115,#116));
#122=MEASURE_REPRESENTATION_ITEM('density measure',
POSITIVE_RATIO_MEASURE(1.),#121);
#123=PROPERTY_DEFINITION_REPRESENTATION(#128,#125);
#124=PROPERTY_DEFINITION_REPRESENTATION(#129,#126);
#125=REPRESENTATION('material name',(#127),#214);
#126=REPRESENTATION('density',(#122),#214);
#127=DESCRIPTIVE_REPRESENTATION_ITEM('\X2\04220438043F043E0432044B0435\X0\',
'\X2\04220438043F043E0432044B0435\X0\');
#128=PROPERTY_DEFINITION('material property','material name',#224);
#129=PROPERTY_DEFINITION('material property','density of part',#224);
#130=DATE_TIME_ROLE('creation_date');
#131=APPLIED_DATE_AND_TIME_ASSIGNMENT(#132,#130,(#224));
#132=DATE_AND_TIME(#133,#134);
#133=CALENDAR_DATE(2022,2,3);
#134=LOCAL_TIME(0,0,0.,#135);
#135=COORDINATED_UNIVERSAL_TIME_OFFSET(0,0,.BEHIND.);
#136=AXIS2_PLACEMENT_3D('',#184,#150,#151);
#137=AXIS2_PLACEMENT_3D('',#185,#152,#153);
#138=AXIS2_PLACEMENT_3D('',#187,#154,#155);
#139=AXIS2_PLACEMENT_3D('',#190,#157,#158);
#140=AXIS2_PLACEMENT_3D('',#192,#159,#160);
#141=AXIS2_PLACEMENT_3D('',#194,#162,#163);
#142=AXIS2_PLACEMENT_3D('',#196,#164,#165);
#143=AXIS2_PLACEMENT_3D('',#198,#167,#168);
#144=AXIS2_PLACEMENT_3D('',#200,#169,#170);
#145=AXIS2_PLACEMENT_3D('',#202,#172,#173);
#146=AXIS2_PLACEMENT_3D('',#204,#174,#175);
#147=AXIS2_PLACEMENT_3D('',#205,#176,#177);
#148=AXIS2_PLACEMENT_3D('',#208,#179,#180);
#149=AXIS2_PLACEMENT_3D('',#209,#181,#182);
#150=DIRECTION('axis',(0.,0.,1.));
#151=DIRECTION('refdir',(1.,0.,0.));
#152=DIRECTION('center_axis',(1.,0.,0.));
#153=DIRECTION('ref_axis',(0.,1.,0.));
#154=DIRECTION('center_axis',(1.,0.,0.));
#155=DIRECTION('ref_axis',(0.,0.,-1.));
#156=DIRECTION('',(-0.514495755427527,0.857492925712544,1.05012596676537E-16));
#157=DIRECTION('center_axis',(1.,0.,0.));
#158=DIRECTION('ref_axis',(0.,1.,0.));
#159=DIRECTION('center_axis',(1.,0.,0.));
#160=DIRECTION('ref_axis',(0.,0.,-1.));
#161=DIRECTION('',(-0.997785157856609,0.0665190105237739,8.14622933203888E-18));
#162=DIRECTION('center_axis',(1.,0.,0.));
#163=DIRECTION('ref_axis',(0.,1.,0.));
#164=DIRECTION('center_axis',(1.,0.,0.));
#165=DIRECTION('ref_axis',(0.,0.,-1.));
#166=DIRECTION('',(-0.64018439966448,0.768221279597376,9.4079973109581E-17));
#167=DIRECTION('center_axis',(1.,0.,0.));
#168=DIRECTION('ref_axis',(0.,1.,0.));
#169=DIRECTION('center_axis',(1.,0.,0.));
#170=DIRECTION('ref_axis',(0.,0.,-1.));
#171=DIRECTION('',(-1.,0.,0.));
#172=DIRECTION('center_axis',(1.,0.,0.));
#173=DIRECTION('ref_axis',(0.,0.,-1.));
#174=DIRECTION('center_axis',(1.,0.,0.));
#175=DIRECTION('ref_axis',(0.,0.,-1.));
#176=DIRECTION('center_axis',(1.,0.,0.));
#177=DIRECTION('ref_axis',(0.,1.,0.));
#178=DIRECTION('',(-0.997785157856609,0.0665190105237739,8.14622933203888E-18));
#179=DIRECTION('center_axis',(1.,0.,0.));
#180=DIRECTION('ref_axis',(0.,0.,-1.));
#181=DIRECTION('center_axis',(1.,0.,0.));
#182=DIRECTION('ref_axis',(0.,1.,0.));
#183=DIRECTION('',(-0.514495755427541,0.857492925712536,1.05012596676536E-16));
#184=CARTESIAN_POINT('',(0.,0.,0.));
#185=CARTESIAN_POINT('Origin',(1.50000000000006,0.,0.));
#186=CARTESIAN_POINT('',(3.00000000000007,-5.00000000000002,-6.1232339957368E-16));
#187=CARTESIAN_POINT('Origin',(3.00000000000011,0.,0.));
#188=CARTESIAN_POINT('',(0.,0.,0.));
#189=CARTESIAN_POINT('',(1.50000000000006,-2.5,-3.06161699786838E-16));
#190=CARTESIAN_POINT('Origin',(18.0000000000001,0.,0.));
#191=CARTESIAN_POINT('',(33.0000000000001,-7.,-8.57252759403147E-16));
#192=CARTESIAN_POINT('Origin',(33.0000000000001,0.,0.));
#193=CARTESIAN_POINT('',(18.0000000000001,-6.,-7.34788079488412E-16));
#194=CARTESIAN_POINT('Origin',(34.2500000000001,0.,0.));
#195=CARTESIAN_POINT('',(35.5000000000001,-10.,-1.22464679914735E-15));
#196=CARTESIAN_POINT('Origin',(35.5000000000001,0.,0.));
#197=CARTESIAN_POINT('',(34.2500000000001,-8.5,-1.04094977927525E-15));
#198=CARTESIAN_POINT('Origin',(767.75,0.,0.));
#199=CARTESIAN_POINT('',(1500.,-10.,-1.22464679914735E-15));
#200=CARTESIAN_POINT('Origin',(1500.,0.,0.));
#201=CARTESIAN_POINT('',(767.75,-10.,-1.22464679914735E-15));
#202=CARTESIAN_POINT('Origin',(1500.,7.,0.));
#203=CARTESIAN_POINT('',(1500.,-7.,-8.57252759403147E-16));
#204=CARTESIAN_POINT('Origin',(1500.,0.,0.));
#205=CARTESIAN_POINT('Origin',(1485.,0.,0.));
#206=CARTESIAN_POINT('',(1470.,-5.,-6.12323399573677E-16));
#207=CARTESIAN_POINT('',(1485.,-6.,-7.34788079488412E-16));
#208=CARTESIAN_POINT('Origin',(1470.,0.,0.));
#209=CARTESIAN_POINT('Origin',(1468.5,0.,0.));
#210=CARTESIAN_POINT('',(1467.,0.,0.));
#211=CARTESIAN_POINT('',(1468.5,-2.5,-3.06161699786838E-16));
#212=UNCERTAINTY_MEASURE_WITH_UNIT(LENGTH_MEASURE(0.01),#216,
'DISTANCE_ACCURACY_VALUE',
'Maximum model space distance between geometric entities at asserted c
onnectivities');
#213=UNCERTAINTY_MEASURE_WITH_UNIT(LENGTH_MEASURE(0.01),#216,
'DISTANCE_ACCURACY_VALUE',
'Maximum model space distance between geometric entities at asserted c
onnectivities');
#214=(
GEOMETRIC_REPRESENTATION_CONTEXT(3)
GLOBAL_UNCERTAINTY_ASSIGNED_CONTEXT((#212))
GLOBAL_UNIT_ASSIGNED_CONTEXT((#216,#218,#219))
REPRESENTATION_CONTEXT('','3D')
);
#215=(
GEOMETRIC_REPRESENTATION_CONTEXT(3)
GLOBAL_UNCERTAINTY_ASSIGNED_CONTEXT((#213))
GLOBAL_UNIT_ASSIGNED_CONTEXT((#216,#218,#219))
REPRESENTATION_CONTEXT('','3D')
);
#216=(
LENGTH_UNIT()
NAMED_UNIT(*)
SI_UNIT(.MILLI.,.METRE.)
);
#217=(
LENGTH_UNIT()
NAMED_UNIT(*)
SI_UNIT(.CENTI.,.METRE.)
);
#218=(
NAMED_UNIT(*)
PLANE_ANGLE_UNIT()
SI_UNIT($,.RADIAN.)
);
#219=(
NAMED_UNIT(*)
SI_UNIT($,.STERADIAN.)
SOLID_ANGLE_UNIT()
);
#220=SHAPE_DEFINITION_REPRESENTATION(#221,#222);
#221=PRODUCT_DEFINITION_SHAPE('',$,#224);
#222=SHAPE_REPRESENTATION('',(#136),#214);
#223=PRODUCT_DEFINITION_CONTEXT('part definition',#228,'design');
#224=PRODUCT_DEFINITION('\X2\0414043504420430043B044C\X0\2-03',
'505010.20.1500 ZK 20-1500',#225,#223);
#225=PRODUCT_DEFINITION_FORMATION('',$,#230);
#226=PRODUCT_RELATED_PRODUCT_CATEGORY('505010.20.1500 ZK 20-1500',
'505010.20.1500 ZK 20-1500',(#230));
#227=APPLICATION_PROTOCOL_DEFINITION('international standard',
'automotive_design',2009,#228);
#228=APPLICATION_CONTEXT(
'Core Data for Automotive Mechanical Design Process');
#229=PRODUCT_CONTEXT('part definition',#228,'mechanical');
#230=PRODUCT('\X2\0414043504420430043B044C\X0\2-03',
'505010.20.1500 ZK 20-1500',$,(#229));
#231=PRESENTATION_STYLE_ASSIGNMENT((#232));
#232=SURFACE_STYLE_USAGE(.BOTH.,#233);
#233=SURFACE_SIDE_STYLE('',(#234));
#234=SURFACE_STYLE_FILL_AREA(#235);
#235=FILL_AREA_STYLE('',(#236));
#236=FILL_AREA_STYLE_COLOUR('',#237);
#237=COLOUR_RGB('',0.635294117647059,0.635294117647059,0.635294117647059);
ENDSEC;
END-ISO-10303-21;
